FUTATSU NO KODOU TO AKAI TSUMI

VAMPIRE KNIGHT

TABS ~ By Fefe (Tron544)

 

Intro:

 

e|--------------------------------------|-----------------------------|

B|--------------------------------------|-----------------------------|

G|-----3--4-----3--4-----3--4--4--6--4--|--3--4--6--3--4--6--3--4--6--|

D|--6--------6--------6-----------------|-----------------------------|

A|--------------------------------------|-----------------------------|

E|--------------------------------------|-----------------------------|

 

 

Verse/Estrofa:

 

e|--------------------------------------------------------------------|

B|--------------------------------------------------------------------|

G|--------------------------------------------------------------------|

D|-----9--8--9--6--6--------9--8--9--6--6-----6--9--8--6--------------|

A|--6--------------------6--------------------------------9--6--6--9--|

E|--------------------------------------------------------------------|

 

e|-------------------------------------------------------------------|

B|-------------------------------------------------------------------|

G|-------------------------------------------------------6--8--8--6--|

D|-----9--8--9--6--6------6--8--9--6--6------6--8--9--9--------------|

A|--6----------------------------------------------------------------|

E|-------------------------------------------------------------------|

 

e|---------------------------------------------------------------------------|

B|---------------------------------------------------------------------------|

G|---------------------------------------------------------------------------|

D|-----9--8--9--6--6---------9--8--9--6--6------6--9--8--6-------------------|

A|--6---------------------6---------------------------------9--6--11--11--9--|

E|---------------------------------------------------------------------------|

 

e|---------------------------------------------|

B|---------------------------------------------|

G|---------------------8--6--------------------|

D|------------------6--------9--8-----8--6--6--|

A|--9--8--7------7-----------------9-----------|

E|---------------------------------------------|

Futatsu no Kodou to Akai Tsumi - Tron544
00:00 / 00:00
DONATE%20BUTTON%20(EN)_edited.png

Pre-Chorus/Pre-Estribillo:

 

e|------------------------------------------------------------|

B|------------------------------------------------------------|

G|--8--8--8--8------------------------6-----------------------|

D|--------------6--6--6--8--9------9-----9--8--6-----6--8--6--|

A|------------------------------------------------9-----------|

E|------------------------------------------------------------|

 

e|-------------------------------------------------------------------------------|

B|-------------------------------------------------------------------------------|

G|---------------------------6--8-----6--8------9--9--9--8--6-----------6--6--8--|

D|--6--8--9--6--8--9------9--------9---------------------------9--8--9-----------|

A|-------------------------------------------------------------------------------|

E|-------------------------------------------------------------------------------|

 

 

Estribillo:

 

e|------------------------------------------------------------------------------|

B|---------------------------------------------------------------------6--6-----|

G|-----5--6-----5--6-----5--6--6--8--6------5--6--8--5--6--8--5--6--8--------8--|

D|--8--------8--------8---------------------------------------------------------|

A|------------------------------------------------------------------------------|

E|------------------------------------------------------------------------------|

 

e|------------------------------------------------------|

B|-----------6--6---------------------------------------|

G|--6--5-----------5-----5--6--8--10--10--10--8--8--10--|

D|--------8-----------8---------------------------------|

A|------------------------------------------------------|

E|------------------------------------------------------|

 

e|------------------------------------------------------------------------------|

B|---------------------------------------------------------------------6--6-----|

G|-----5--6-----5--6-----5--6--6--8--6------5--6--8--5--6--8--5--6--8--------8--|

D|--8--------8--------8---------------------------------------------------------|

A|------------------------------------------------------------------------------|

E|------------------------------------------------------------------------------|

 

e|--------------------------------------------------------------|

B|--------------------------------------------------------------|

G|--8--10--8--6------8--10--10--8--8--6--6--5------8--8--8--10--|

D|--------------------------------------------------------------|

A|--------------------------------------------------------------|

E|--------------------------------------------------------------|

©2015 by Fefe - Tron544

Sigueme en:

  • YouTube - White Circle
  • Facebook - White Circle
  • Instagram - White Circle
  • Twitter - White Circle
This site was designed with the
.com
website builder. Create your website today.
Start Now