FUKASHIGI NO CARTE

Seishun Buta Yarou wa Bunny Girl Senpai no Yume wo Minai

TABS ~ By Fefe (Tron544)

 

Intro:

e|----------|-----------------------------------------|
B|----10-8--|--10----10-8-10----10-8------------10-8--|
G|--7-------|------7----------7------9--10----7-------|
D|----------|-----------------------------------------|
A|----------|-----------------------------------------|
E|----------|-----------------------------------------|

e|----------------------------------------|
B|--10----10-8-10/13--11--10--------10-8--|
G|------7-------------------------7-------|
D|----------------------------------------|
A|----------------------------------------|
E|----------------------------------------|

e|------8--------------------------------------------------------|
B|--10-----10--8---------10----10-8-10----10-8-------------------|
G|----------------9--10------7----------7------10--6--6/9--------|
D|---------------------------------------------------------------|
A|---------------------------------------------------------------|
E|---------------------------------------------------------------|

Fukashigi no Carte - Tron544
00:00 / 00:00
DONATE%20BUTTON%20(EN)_edited.png

Verse/Estrofa:

e|-----------------------------------------|
B|-----------------------------8/10--------|
G|--9---10-10----11---12-8--9--------------|
D|-----------------------------------------|
A|-----------------------------------------|
E|-----------------------------------------|

e|-----------------------------------------------------------8---------------|
B|--10---11-11----12---13------------9/10----------------10-----9--10--------|
G|--------------------------9/11--9---------11-11----10----------------------|
D|---------------------------------------------------------------------------|
A|---------------------------------------------------------------------------|
E|---------------------------------------------------------------------------|

 


Chorus/Estribillo:

e|----------|------------------------------------------------------------------------------|
B|----10-8--|--10----10-8-10----10-8------------10-8-10----10-8-10/13--11--10--------10-8--|
G|--7-------|------7----------7------9--10----7----------7-------------------------7-------|
D|----------|------------------------------------------------------------------------------|
A|----------|------------------------------------------------------------------------------|
E|----------|------------------------------------------------------------------------------|

e|------8--------------------------------------------------------|
B|--10-----10--8---------10----10-8-10----10-8-------------------|
G|----------------9--10------7----------7------10--6--6/9--------|
D|---------------------------------------------------------------|
A|---------------------------------------------------------------|
E|---------------------------------------------------------------|

©2015 by Fefe - Tron544

Sigueme en:

  • YouTube - White Circle
  • Facebook - White Circle
  • Instagram - White Circle
  • Twitter - White Circle
This site was designed with the
.com
website builder. Create your website today.
Start Now