FUKAI MORI

INUYASHA

CHORDS ~ By Fefe (Tron544)

 

Chords used/Acordes utilizados:

 

Am: x.0.2.2.1.0  -  A#: 6.8.8.7.6.6
B7: x.2.4.2.4.2  -  B7sus4: x.2.4.2.5.2
C9: x.3.2.0.3.0
D: x.x.0.2.3.2  -  Dsus2: x.x.0.2.3.0  -  Dsus4: x.x.0.2.3.3
D/F#: 2.x.0.2.3.x  -  D#sus2: x.6.8.8.6.6
Em7: 0.2.2.0.3.0
F: 1.3.3.2.1.1
G: 3.2.0.0.3.3  -  Gm7: 3.x.3.3.3.3

 

Em7       C9   D   G   D/F#
Bokutachi wa ikiru hodo ni
Em7      C9 B7  Em7
Nakushiteku sukoshi zutsu
Em7     C9   D    G   D/F#
Shinjiteru hikari motome
Em7    C9 B7       Em7
Arukidasu kimi to ima

 

| D#sus2 A# | F Gm7 |

 

   D#sus2        A#          F     Gm7
Fukai fukai mori no oku ni ima mo kitto
  D#sus2    A#             F       Gm7
Okizari ni shita kokoro kakushiteru yo

 

C9  G        D        Em7      C9       G       Dsus4  D  Dsus2  D   B7sus4
Toki no rizumu o shireba mo ichido toberu darou

 

Em7       C9    D     G  D/F#
Bokutachi wa samayoi nagara
Em7     C9  B7  Em7
Ikite yuku doko made mo
Em7     C9   D    G   D/F#
Shinjiteru hikari motome
Em7    C9 B7       Em7
Arukidasu kimi to ima



| D#sus2 A# | F Gm7 | D#sus2 A# | F Gm7 |

Fukai Mori - Tron544
00:00 / 00:00
DONATE%20BUTTON%20(EN)_edited.png

TABS ~ By Fefe (Tron544)

 

First Chorus/Primer EstribillO:

 

e|-----------5--5-/-7----------8---8--7--7------------5--5-/-7--5------5--5--------|
B|--5--7--8-------------5--------------------5--7--8----------------7--------8--8--|
G|-------------------------7-------------------------------------------------------|
D|---------------------------------------------------------------------------------|
A|---------------------------------------------------------------------------------|
E|---------------------------------------------------------------------------------|

 

e|-----------5--5-/-7----------8---8--7--7------------5--5-/-7--5----------------------|
B|--5--7--8-------------5--------------------5--7--8----------------7--7--5--7--7-/-8--|
G|-------------------------7-----------------------------------------------------------|
D|-------------------------------------------------------------------------------------|
A|-------------------------------------------------------------------------------------|
E|-------------------------------------------------------------------------------------|

 


Intro:

 

e|-----------------------6--5--5-/-6--|
B|--8--6---8--6---8--6----------------|
G|------------------------------------|
D|------------------------------------|
A|------------------------------------|
E|------------------------------------|

 


Verse/Estrofa:

 

e|--------------------------------------------------------------------------------|
B|----------------------------------------------------------------------4-/-6--6--|
G|--3--5--5-/-7---3--5--5-/-7---3--5--5-/-7---3--5--5-/-7---3--5--3--5------------|
D|--------------------------------------------------------------------------------|
A|--------------------------------------------------------------------------------|
E|--------------------------------------------------------------------------------|

 

e|------------------------------------------------------------|
B|--3--4--4-/-6---------3--4--4-/-6---------------------------|
G|---------------3--3----------------3--3---3--5--3--5--3--3--|
D|------------------------------------------------------------|
A|------------------------------------------------------------|
E|------------------------------------------------------------|

 


Pre-Chorus/Pre-Estribillo:

 

e|---------------------------------------------------------------------------|
B|--5---------------8--7--7--7--7--7-/-8-------8--7--7--7--7--7-/-8----5-----|
G|-------7--7----7--------------------------7-----------------------------7--|
D|---------------------------------------------------------------------------|
A|---------------------------------------------------------------------------|
E|---------------------------------------------------------------------------|

 


Chorus/Estribillo:

 

e|-----------5--5-/-7----------8---8--7--7------------5--5-/-7--5------5---5--7--5-\-3--|
B|--5--7--8-------------5--------------------5--7--8----------------7-------------------|
G|-------------------------7------------------------------------------------------------|
D|--------------------------------------------------------------------------------------|
A|--------------------------------------------------------------------------------------|
E|--------------------------------------------------------------------------------------|

 

e|-----------5--5-/-7----------8---8--7--7------------5--5-/-7--5----------------------|
B|--5--7--8-------------5--------------------5--7--8----------------7--7--5--7--7-/-8--|
G|-------------------------7-----------------------------------------------------------|
D|-------------------------------------------------------------------------------------|
A|-------------------------------------------------------------------------------------|
E|-------------------------------------------------------------------------------------|

 


Outro:

 

e|----------------------------------------------6--5--5-/-6--|
B|--8--6---8--6---8--6-----------------------6---------------|
G|-------------------------------------7--8------------------|
D|-----------------------7-/-8------8------------------------|
A|-----------------------------------------------------------|
E|-----------------------------------------------------------|

©2015 by Fefe - Tron544

Sigueme en:

  • YouTube - White Circle
  • Facebook - White Circle
  • Instagram - White Circle
  • Twitter - White Circle
This site was designed with the
.com
website builder. Create your website today.
Start Now