~ FUDE PEN ~BORU PEN~ ~

TABLATURAS ~ By Fefe - Tron544

 

Intro:

 

e|--12--11----------------------14--12--11--12--14--|

B|----------12------12brbr--------------------------|

G|--------------11----------11----------------------|

D|--------------------------------------------------|

A|--------------------------------------------------|

E|--------------------------------------------------|

 

e|--12--11----------------------14--------------|

B|----------12------12brbr----------------------|

G|--------------11----------11-------6---7---8--|

D|-----------------------------------x---x---x--|

A|-----------------------------------4---5---6--|

E|----------------------------------------------|

 

 

Verse/Estrofa:

 

GUITAR 1:

 

e|-------------------------------------|

B|-------------------------------------|

G|--(9)------(6)---------------(9)--9--| (PALM MUTE)

D|--(9)------(6)------(7)------(9)--9--|

A|--(7)------(4)------(7)------(7)--7--|

E|--------------------(5)--------------|

 

GUITAR 2:

 

     REPEAT/REPITE x2 

e|-----------------------|-----------------------------------------|

B|-----------------9--9--|-----------------------------------9--9--|

G|----------9------------|----------9------12--11--9---------------|

D|--11--11-----11--------|--11--11-----11-------------11--9--------|

A|-----------------------|-----------------------------------------|

E|-----------------------|-----------------------------------------|

 

GUITAR 1:

 

e|--------------------------|-------------|

B|--------------------------|-------------|

G|--9------6-------------9--|--9---8---6--|

D|--9------6------7------9--|--9---8---6--|

A|--7------4------7------7--|--7---6---4--|

E|----------------5---------|-------------|

 

GUITAR 2:

 

     REPEAT/REPITE x2 

e|-----------------------|---------------------------------------|

B|-----------------9--9--|---------------------------------------|

G|----------9------------|----------9------12--11--9--11--11--9--|

D|--11--11-----11--------|--11--11-----11------------------------|

A|-----------------------|---------------------------------------|

E|-----------------------|---------------------------------------|

 

 

Pre-Chorus/Pre-Estribillo:

 

GUITAR 1:

 

e|--------------------------|

B|--------------------------|

G|--6------5------4---------|

D|--6------5------4------4--|

A|--4------3------2------4--|

E|-----------------------2--|

 

GUITAR 2:

 

e|-------------------------------------|---------------------------------------|

B|------9------9---------9-------------|--9------9------9------------9--9------|

G|--11-----11-----11--9-----11--9--11--|-----11-----11-----11--9--9--------11--|

D|-------------------------------------|---------------------------------------|

A|-------------------------------------|---------------------------------------|

E|-------------------------------------|---------------------------------------|

 

GUITAR 1:

 

e|--------------------------|--------------|

B|--------------------------|--------------|

G|--------------------------|--------------|

D|--4------6------7------9--|--9--9--9--9--|

A|--4------6------7------9--|--9--9--9--9--|

E|--2------4------5------7--|--7--7--7--7--|

 

GUITAR 2:

 

e|-------------------|------------------|--------------------------|

B|------9--10--9-----|-----9--10--9-----|-----9--10--9-------------|

G|--11------------9--|--9------------9--|--9------------9--11--11--|

D|-------------------|------------------|--------------------------|

A|-------------------|------------------|--------------------------|

E|-------------------|------------------|--------------------------|

 

 

Chorus/Estribillo:

 

GUITAR 1:

 

e|--------------------------|

B|--------------------------|

G|----------------6---------|

D|--2------7------6------4--|

A|--2------7------4------4--|

E|--0------5-------------2--|

 

GUITAR 2:

 

e|----------------------------------------------|-------------------9------|

B|-----12--12-----12--12-----12--12--10--9--10--|---------9--10--9---------|

G|--9----------9----------9---------------------|--9--11---------------11--|

D|----------------------------------------------|--------------------------|

A|----------------------------------------------|--------------------------|

E|----------------------------------------------|--------------------------|

 

GUITAR 1:

 

e|---------------------------------------|

B|---------------------------------------|

G|-----------------------4---6---8---11--|

D|--7------6------4------4---x---x---x---|

A|--7------7------4------2---4---6---9---|

E|--5------4------2----------------------|

 

GUITAR 2:

 

e|-------------------------|------------------|--------------------------|

B|--9----------------------|------------------|--9--10--9---------9--12--|

G|-----11--9--9--9------9--|--9--9--9------9--|------------9--11---------|

D|------------------11-----|-----------11-----|--------------------------|

A|-------------------------|------------------|--------------------------|

E|-------------------------|------------------|--------------------------|

 

GUITAR 1:

 

e|--------------------------|

B|--------------------------|

G|----------------6---------|

D|--2------7------6------4--|

A|--2------7------4------4--|

E|--0------5-------------2--|

 

GUITAR 2:

 

e|----------------------------------------------|-------------------9------|

B|-----12--12-----12--12-----12--12--10--9--10--|---------9--10--9---------|

G|--9----------9----------9---------------------|--9--11---------------11--|

D|----------------------------------------------|--------------------------|

A|----------------------------------------------|--------------------------|

E|----------------------------------------------|--------------------------|

 

GUITAR 1:

 

e|--------------------------|

B|--------------------------|

G|-----------------------4--|

D|--7------6------4------4--|

A|--7------7------4------2--|

E|--5------4------2---------|

 

GUITAR 2:

 

e|-------------------------|------------------|------------------------------------|

B|--9----------------------|------------------|--9----------10--9-----10--9--------|

G|-----11--9--9--9------9--|--9--9--9------9--|-----11-------------9---------9--9--|

D|------------------11-----|-----------11-----|------------------------------------|

A|-------------------------|------------------|------------------------------------|

E|-------------------------|------------------|------------------------------------|

 

 

Outro:

 

e|--12--11----------------------14--12--11--12--14--|

B|----------12------12brbr--------------------------|

G|--------------11----------11----------------------|

D|--------------------------------------------------|

A|--------------------------------------------------|

E|--------------------------------------------------|

 

e|--12--11----------------------14--------------|----------------------|

B|----------12------12brbr----------------------|----------------------|

G|--------------11----------11-------6---7---8--|--4---6---8---11---9--|

D|-----------------------------------x---x---x--|--x---x---x---x----9--|

A|-----------------------------------4---5---6--|--2---4---6---9----7--|

E|----------------------------------------------|----------------------|

 

 

Fude Pen ~Boru Pen~ - Tron544
00:00 / 00:00

©2019 by Fefe - Tron544

Sigueme en:

  • YouTube - White Circle
  • Facebook - White Circle
  • Instagram - White Circle
  • Twitter - White Circle
This site was designed with the
.com
website builder. Create your website today.
Start Now