~ FOREVER WE CAN MAKE IT! ~

TABLATURAS ~ By Fefe - Tron544

 

Intro:

 

GUITAR 1

 

e|-----------|---------------------------------------------------|

B|-----------|---------------------------------------------------|

G|-----------|---------------------------------------------------|

D|--6--6--6--|---------------------------------------------------|

A|--6--6--6--|--8--8--10--8--11--8--10--8---8--10--8--11--8--10--|

E|--4--4--4--|--6--6--6---6--6---6--6---6---6--6---6--6---6--6---|

 

GUITAR 2:

 

e|-----------|-----|

B|-----------|-----|

G|-----------|-----|

D|--6--6--6--|--8--|

A|--6--6--6--|--8--|

E|--4--4--4--|--6--|

 

GUITAR 3:

 

e|------|-------------------------------|

B|------|-------------------------------|

G|------|----------10-------------------|

D|--12--|--10--12------12--10--8----12--|

A|------|-------------------------------|

E|------|-------------------------------|

 

GUITAR 1

 

e|--------------------------------------------------|

B|--------------------------------------------------|

G|--------------------------------------------------|

D|-----------------------------------------6--6--6--|

A|--8--8--10--8--11--8--10--8---8--10--8---6--6--6--|

E|--6--6--6---6--6---6--6---6---6--6---6---4--4--4--|

 

GUITAR 2:

 

e|-----------|

B|-----------|

G|-----------|

D|--6--6--6--|

A|--6--6--6--|

E|--4--4--4--|

 

GUITAR 3:

 

e|-------------------------|

B|-------------------------|

G|----------10-------------|

D|--10--12------12--10--8--|

A|-------------------------|

E|-------------------------|

 

 

Verse/Estrofa:

 

  /~~~~~~~~~~~~( REPEAT x2 / REPITE x2 )~~~~~~~~~~~~\

e|---------------------------------------------------|

B|---------------------------------------------------|

G|---------------------------------------------------|

D|---------------------------------------------------|

A|--8--8--10--8--11--8--10--8---8--10--8--11--8--10--|

E|--6--6--6---6--6---6--6---6---6--6---6--6---6--6---|

 

GUITAR 2:

 

e|-----|

B|-----|

G|-----|

D|--8--|

A|--8--|

E|--6--|

 

GUITAR 3:

 

e|-------------------------------------------------------------------|

B|-------------------------------------------------------------------|

G|-------------------------------------------------------------------|

D|--11--11--11---11--11--11--11--11--11---8--8------8--8------8------|

A|----------------------------------------------11--------11-----11--|

E|-------------------------------------------------------------------|

 

GUITAR 1:

 

  /~~~~~~~~~~~~( REPEAT x2 / REPITE x2 )~~~~~~~~~~~~\

e|---------------------------------------------------|

B|---------------------------------------------------|

G|---------------------------------------------------|

D|---------------------------------------------------|

A|--8--8--10--8--11--8--10--8---8--10--8--11--8--10--|

E|--6--6--6---6--6---6--6---6---6--6---6--6---6--6---|

 

GUITAR 2:

 

e|-----|

B|-----|

G|-----|

D|--8--|

A|--8--|

E|--6--|

 

GUITAR 3:

 

e|-------------------------------------------------------------------|

B|-------------------------------------------------------------------|

G|-------------------------------------------------------------------|

D|--11--11--11---11--11--11--11--11--11---8--8------8--8------8--11--|

A|----------------------------------------------11--------11---------|

E|-------------------------------------------------------------------|

 

GUITAR 1:

 

e|---------------------------------------|---------------------------------------|

B|---------------------------------------|---------------------------------------|

G|---------------------------------------|---------------------------------------|

D|--4--4--4--4--4--4---4--4--4--4--4--4--|--6--6--6--6--6--6---6--6--6--6--6--6--|

A|--4--4--4--4--4--4---4--4--4--4--4--4--|--6--6--6--6--6--6---6--6--6--6--6--6--|

E|--2--2--2--2--2--2---2--2--2--2--2--2--|--4--4--4--4--4--4---4--4--4--4--4--4--|

 

GUITAR 2:

 

e|------------------|------------------|

B|------------------|------------------|

G|------------------|------------------|

D|--4------4--4--4--|--6------6--6--6--|

A|--4------4--4--4--|--6------6--6--6--|

E|--2------2--2--2--|--4------4--4--4--|

 

GUITAR 3:

 

e|-----------------------------------------------|----------------------------------------|

B|-----------------------------------------------|----------------------------------------|

G|-----------------8------8--10--8--------8------|--8------8------8--10--8----------------|

D|--8--8--11---11-----11--------------11-----11--|-----11-----11--------------------------|

A|-----------------------------------------------|----------------------------11--11--11--|

E|-----------------------------------------------|----------------------------------------|

 

GUITAR 1:

 

e|---------------------------------------------------|------------------------------------------------------|

B|---------------------------------------------------|------------------------------------------------------|

G|---------------------------------------------------|------------------------------------------------------|

D|---------------------------------------------------|------------------------------8--8--8--8--8--8--8--8--|

A|--8--8--10--8--11--8--10--8---8--10--8--11--8--10--|--8--8--10--8--11--8--10--8---8--8--8--8--8--8--8--8--|

E|--6--6--6---6--6---6--6---6---6--6---6--6---6--6---|--6--6--6---6--6---6--6---6---6--6--6--6--6--6--6--6--|

 

GUITAR 2:

 

e|-----|--------------------------|

B|-----|--------------------------|

G|-----|--------------------------|

D|--8--|--8--8--8--8--8--8--8--8--|

A|--8--|--8--8--8--8--8--8--8--8--|

E|--6--|--6--6--6--6--6--6--6--6--|

 

GUITAR 3:

 

e|---------|------------|

B|---------|------------|

G|---------|------------|

D|---------|--8--10--8--|

A|--11--8--|------------|

E|---------|------------|

 

 

Pre-Chorus/Pre-Estribillo:

 

GUITAR 1:

 

e|------------------------|-----------------------------|

B|------------------------|-----------------------------|

G|---------------x--x--8--|-----------------------------|

D|--x--x--5------x--x--8--|--x--x--8------x--x--10--10--|

A|--x--x--5------x--x--6--|--x--x--8------x--x--8---8---|

E|--x--x--3---------------|--x--x--6------x--x--8---8---|

 

GUITAR 2:

 

e|------------------------|-----------------------------|

B|------------------------|-----------------------------|

G|---------------x--x--8--|-----------------------------|

D|--x--x--5------x--x--8--|--x--x--8------x--x--10--10--|

A|--x--x--5------x--x--6--|--x--x--8------x--x--8---8---|

E|--x--x--3---------------|--x--x--6------x--x--8---8---|

 

GUITAR 3:

 

e|--------------------------------------------------|---------------------------------------------|

B|--------------------------------------------------|---------------------------------------------|

G|--------------------------------------------------|---------------------------------------------|

D|--12--12--12----8--10--8--12--12--12----8--10--8--|--12--12--12--10--8--10--12--10----8--10--8--|

A|--------------------------------------------------|---------------------------------------------|

E|--------------------------------------------------|---------------------------------------------|

 

GUITAR 1:

 

e|------------------------|---------------6-----7-----|

B|------------------------|---------------9-b---10-b--|

G|---------------x--x--8--|---------------------------|

D|--x--x--5------x--x--8--|--x--x--8------------------|

A|--x--x--5------x--x--6--|--x--x--8------------------|

E|--x--x--3---------------|--x--x--6------------------|

 

GUITAR 2:

 

e|------------------------|-----------------------|

B|------------------------|-----------------------|

G|---------------x--x--8--|-----------------------|

D|--x--x--5------x--x--8--|--x--x--8------8----9--|

A|--x--x--5------x--x--6--|--x--x--8------8----9--|

E|--x--x--3---------------|--x--x--6------6----7--|

 

GUITAR 3:

 

e|--------------------------------------------------|----------------------------------------|

B|--------------------------------------------------|----------------------------------------|

G|--------------------------10--10------------------|----------------------------------------|

D|--12--12--12----8--10--8----------12----8--10--8--|--12--12--12--10--8--12--8----8--10--8--|

A|--------------------------------------------------|----------------------------------------|

E|--------------------------------------------------|----------------------------------------|

 

GUITAR 1:

 

e|--8-----8---------11----11----|------------------------|

B|--11-b--11-b------14-b--14-b--|------------------------|

G|------------------------------|------------------------|

D|------------------------------|--x--x--8------x--x--5--|

A|------------------------------|--x--x--8------x--x--5--|

E|------------------------------|--x--x--6------x--x--3--|

 

GUITAR 2:

 

e|--------------------|------------------------|

B|--------------------|------------------------|

G|--------------8--8--|------------------------|

D|--10--10------8--8--|--x--x--8------x--x--5--|

A|--10--10------6--6--|--x--x--8------x--x--5--|

E|--8---8-------------|--x--x--6------x--x--3--|

 

GUITAR 3:

 

e|---------------------------------------------|-------------------------------------------|

B|---------------------------------------------|-------------------------------------------|

G|---------------------------------------------|-------------------------------------------|

D|--12--12--12----8--8--10--8--12--12--10--12--|--12--12--12--10--8--10--8--8----8--10--8--|

A|---------------------------------------------|-------------------------------------------|

E|---------------------------------------------|-------------------------------------------|

 

GUITAR 1:

 

e|----------------------------|--------------------------------------|

B|----------------------------|--------------------------------------|

G|--3----10----5---3---5---7--|--8--8--8--8--8---10--10--10--10--10--|

D|----------------------------|--8--8--8--8--8---10--10--10--10--10--|

A|--1----8-----3---1---3---5--|--6--6--6--6--6---8---8---8---8---8---|

E|----------------------------|--------------------------------------|

 

GUITAR 2:

 

e|------------|--------------------------------------|

B|------------|--------------------------------------|

G|--5------7--|--8--8--8--8--8---10--10--10--10--10--|

D|--5------7--|--8--8--8--8--8---10--10--10--10--10--|

A|--3------5--|--6--6--6--6--6---8---8---8---8---8---|

E|------------|--------------------------------------|

 

GUITAR 3:

 

e|------------------------|----------------------|

B|------------------------|----------------------|

G|-----10-----------------|-----10---------------|

D|--8-------10--8--10--8--|--8-------10--12--10--|

A|------------------------|----------------------|

E|------------------------|----------------------|

 

 

Chorus/Estribillo:

 

GUITAR 1:

 

e|------------------------------------------------------|----------------------------------------------|

B|------------------------------------------------------|----------------------------------------------|

G|--8--8--8--8--8--8---10--10--10--10--10---12--12--12--|--3--3--3--3--3--3---5--5--5--5--5---7--7--7--|

D|--8--8--8--8--8--8------------------------------------|--3--3--3--3--3--3----------------------------|

A|--6--6--6--6--6--6---8---8---8---8---8----10--10--10--|--1--1--1--1--1--1---3--3--3--3--3---5--5--5--|

E|------------------------------------------------------|----------------------------------------------|

 

GUITAR 2:

 

e|---------------------------------------|---------------------------------------|

B|---------------------------------------|---------------------------------------|

G|--8--8--8--8--8--8---8--8--8--8--8--8--|---------------------------------------|

D|--8--8--8--8--8--8---8--8--8--8--8--8--|--8--8--8--8--8--8---8--8--8--8--8--8--|

A|--6--6--6--6--6--6---6--6--6--6--6--6--|--8--8--8--8--8--8---8--8--8--8--8--8--|

E|---------------------------------------|--6--6--6--6--6--6---6--6--6--6--6--6--|

 

GUITAR 3:

 

e|-----------------------------------|-----------------------------------|

B|------11--10--11-------11--10--11--|------11--10--11-------11--10--11--|

G|--10---------------10--------------|--10---------------10--------------|

D|-----------------------------------|-----------------------------------|

A|-----------------------------------|-----------------------------------|

E|-----------------------------------|-----------------------------------|

 

GUITAR 1:

 

e|------------------------------------------------------------|-------------------------------------------------|

B|------------------------------------------------------------|-------------------------------------------------|

G|--10--10--10--10--10--10---12--12--12--12--12---10--10--10--|--12--12--12--12---14---15--15---17--17--17--17--|

D|--10--10--10--10--10--10------------------------------------|-------------------------------------------------|

A|--8---8---8---8---8---8----10--10--10--10--10---8---8---8---|--10--10--10--10---12---13--13---15--15--15--15--|

E|------------------------------------------------------------|-------------------------------------------------|

 

GUITAR 2:

 

e|---------------------------------------------------|-------------------------------------|

B|---------------------------------------------------|-------------------------------------|

G|--10--10--10--10--10--10---10--10--10--10--10--10--|-------------------------------------|

D|--10--10--10--10--10--10---10--10--10--10--10--10--|--5--5--5--5---7---8--8--8--8--8--8--|

A|--8---8---8---8---8---8----8---8---8---8---8---8---|--5--5--5--5---7---8--8--8--8--8--8--|

E|---------------------------------------------------|--3--3--3--3---5---6--6--6--6--6--6--|

 

GUITAR 3:

 

e|-----------------------------------|-----------------------------------|

B|------11--10--11-------11--10--11--|------11--10--11-------11--10--11--|

G|--10---------------10--------------|--10---------------10--------------|

D|-----------------------------------|-----------------------------------|

A|-----------------------------------|-----------------------------------|

E|-----------------------------------|-----------------------------------|

GUITAR 1:

 

e|------------------------------------------------------|----------------------------------------------|

B|------------------------------------------------------|----------------------------------------------|

G|--8--8--8--8--8--8---10--10--10--10--10---12--12--12--|--3--3--3--3--3--3---5--5--5--5--5---7--7--7--|

D|--8--8--8--8--8--8------------------------------------|--3--3--3--3--3--3----------------------------|

A|--6--6--6--6--6--6---8---8---8---8---8----10--10--10--|--1--1--1--1--1--1---3--3--3--3--3---5--5--5--|

E|------------------------------------------------------|----------------------------------------------|

 

GUITAR 2:

 

e|---------------------------------------|---------------------------------------|

B|---------------------------------------|---------------------------------------|

G|--8--8--8--8--8--8---8--8--8--8--8--8--|---------------------------------------|

D|--8--8--8--8--8--8---8--8--8--8--8--8--|--8--8--8--8--8--8---8--8--8--8--8--8--|

A|--6--6--6--6--6--6---6--6--6--6--6--6--|--8--8--8--8--8--8---8--8--8--8--8--8--|

E|---------------------------------------|--6--6--6--6--6--6---6--6--6--6--6--6--|

 

GUITAR 3:

 

e|-----------------------------------|-----------------------------------|

B|------11--10--11-------11--10--11--|------11--10--11-------11--10--11--|

G|--10---------------10--------------|--10---------------10--------------|

D|-----------------------------------|-----------------------------------|

A|-----------------------------------|-----------------------------------|

E|-----------------------------------|-----------------------------------|

 

GUITAR 1:

 

e|--------------------------------------------------------|-------------------------------------------|

B|--------------------------------------------------------|-------------------------------------------|

G|--5--5--5--5---7--7--7--7---10--10--10--10--7--7--7--7--|--8--8--8--8--8--8---8--8--8---10--10--10--|

D|--------------------------------------------------------|--8--8--8--8--8--8---8--8--8---------------|

A|--3--3--3--3---5--5--5--5---8---8---8---8---5--5--5--5--|--6--6--6--6--6--6---6--6--6---8---8---8---|

E|--------------------------------------------------------|-------------------------------------------|

 

GUITAR 2:

 

e|-------------------------------------|---------------------------------------|

B|-------------------------------------|---------------------------------------|

G|--5--5--5--5--5--5---5--5--5--5---7--|--8--8--8--8--8--8---8--8--8--8--8--8--|

D|--5--5--5--5--5--5---5--5--5--5---7--|--8--8--8--8--8--8---8--8--8--8--8--8--|

A|--3--3--3--3--3--3---3--3--3--3---5--|--6--6--6--6--6--6---6--6--6--6--6--6--|

E|-------------------------------------|---------------------------------------|

 

GUITAR 3:

 

 

e|--------------------------|---------------------------------------|

B|--------------------------|---------------------------------------|

G|--------------10----------|--8--------------------10-h-12---------|

D|--12--10--12------12--10--|-----12--10-h-12--10------------10--8--|

A|--------------------------|---------------------------------------|

E|--------------------------|---------------------------------------|

 

GUITAR 1:

 

e|------------------------------------------------------|----------------------------------------------|

B|------------------------------------------------------|----------------------------------------------|

G|--8--8--8--8--8--8---10--10--10--10--10---12--12--12--|--3--3--3--3--3--3---5--5--5--5--5---7--7--7--|

D|--8--8--8--8--8--8------------------------------------|--3--3--3--3--3--3----------------------------|

A|--6--6--6--6--6--6---8---8---8---8---8----10--10--10--|--1--1--1--1--1--1---3--3--3--3--3---5--5--5--|

E|------------------------------------------------------|----------------------------------------------|

 

GUITAR 2:

 

e|---------------------------------------|---------------------------------------|

B|---------------------------------------|---------------------------------------|

G|--8--8--8--8--8--8---8--8--8--8--8--8--|---------------------------------------|

D|--8--8--8--8--8--8---8--8--8--8--8--8--|--8--8--8--8--8--8---8--8--8--8--8--8--|

A|--6--6--6--6--6--6---6--6--6--6--6--6--|--8--8--8--8--8--8---8--8--8--8--8--8--|

E|---------------------------------------|--6--6--6--6--6--6---6--6--6--6--6--6--|

 

GUITAR 3:

 

e|-----------------------------------|-----------------------------------|

B|------11--10--11-------11--10--11--|------11--10--11-------11--10--11--|

G|--10---------------10--------------|--10---------------10--------------|

D|-----------------------------------|-----------------------------------|

A|-----------------------------------|-----------------------------------|

E|-----------------------------------|-----------------------------------|

 

GUITAR 1:

 

e|------------------------------------------------------------|-------------------------------------------------|

B|------------------------------------------------------------|-------------------------------------------------|

G|--10--10--10--10--10--10---12--12--12--12--12---10--10--10--|--12--12--12--12---14---15--15---17--17--17--17--|

D|--10--10--10--10--10--10------------------------------------|-------------------------------------------------|

A|--8---8---8---8---8---8----10--10--10--10--10---8---8---8---|--10--10--10--10---12---13--13---15--15--15--15--|

E|------------------------------------------------------------|-------------------------------------------------|

 

GUITAR 2:

 

e|---------------------------------------------------|-------------------------------------|

B|---------------------------------------------------|-------------------------------------|

G|--10--10--10--10--10--10---10--10--10--10--10--10--|-------------------------------------|

D|--10--10--10--10--10--10---10--10--10--10--10--10--|--5--5--5--5---7---8--8--8--8--8--8--|

A|--8---8---8---8---8---8----8---8---8---8---8---8---|--5--5--5--5---7---8--8--8--8--8--8--|

E|---------------------------------------------------|--3--3--3--3---5---6--6--6--6--6--6--|

 

GUITAR 3:

 

e|-----------------------------------|-----------------------------------|

B|------11--10--11-------11--10--11--|------11--10--11-------11--10--11--|

G|--10---------------10--------------|--10---------------10--------------|

D|-----------------------------------|-----------------------------------|

A|-----------------------------------|-----------------------------------|

E|-----------------------------------|-----------------------------------|

GUITAR 1:

 

e|------------------------------------------------------|----------------------------------------------|

B|------------------------------------------------------|----------------------------------------------|

G|--8--8--8--8--8--8---10--10--10--10--10---12--12--12--|--3--3--3--3--3--3---5--5--5--5--5---7--7--7--|

D|--8--8--8--8--8--8------------------------------------|--3--3--3--3--3--3----------------------------|

A|--6--6--6--6--6--6---8---8---8---8---8----10--10--10--|--1--1--1--1--1--1---3--3--3--3--3---5--5--5--|

E|------------------------------------------------------|----------------------------------------------|

 

GUITAR 2:

 

e|---------------------------------------|---------------------------------------|

B|---------------------------------------|---------------------------------------|

G|--8--8--8--8--8--8---8--8--8--8--8--8--|---------------------------------------|

D|--8--8--8--8--8--8---8--8--8--8--8--8--|--8--8--8--8--8--8---8--8--8--8--8--8--|

A|--6--6--6--6--6--6---6--6--6--6--6--6--|--8--8--8--8--8--8---8--8--8--8--8--8--|

E|---------------------------------------|--6--6--6--6--6--6---6--6--6--6--6--6--|

 

GUITAR 3:

 

e|-----------------------------------|-----------------------------------|

B|------11--10--11-------11--10--11--|------11--10--11-------11--10--11--|

G|--10---------------10--------------|--10---------------10--------------|

D|-----------------------------------|-----------------------------------|

A|-----------------------------------|-----------------------------------|

E|-----------------------------------|-----------------------------------|

 

GUITAR 1:

 

e|--------------------------------------------------------|----------------------------------------|

B|--------------------------------------------------------|----------------------------------------|

G|--5--5--5--5---7--7--7--7---10--10--10--10--7--7--7--7--|--8--8--8--8--8--8---8--8--8------------|

D|--------------------------------------------------------|--8--8--8--8--8--8---8--8--8---6--6--6--|

A|--3--3--3--3---5--5--5--5---8---8---8---8---5--5--5--5--|--6--6--6--6--6--6---6--6--6---6--6--6--|

E|--------------------------------------------------------|-------------------------------4--4--4--|

 

GUITAR 2:

 

e|-------------------------------------|----------------------------------------|

B|-------------------------------------|----------------------------------------|

G|--5--5--5--5--5--5---5--5--5--5---7--|--8--8--8--8--8--8---8--8--8------------|

D|--5--5--5--5--5--5---5--5--5--5---7--|--8--8--8--8--8--8---8--8--8---6--6--6--|

A|--3--3--3--3--3--3---3--3--3--3---5--|--6--6--6--6--6--6---6--6--6---6--6--6--|

E|-------------------------------------|-------------------------------4--4--4--|

 

GUITAR 3:

 

e|-----------------------------|

B|-----------------------------|

G|--------------10-------------|

D|--12--10--12------12--10--8--|

A|-----------------------------|

E|-----------------------------|

 

 

forever we can make it! - Tron544
00:00 / 00:00

©2019 by Fefe - Tron544

Sigueme en:

  • YouTube - White Circle
  • Facebook - White Circle
  • Instagram - White Circle
  • Twitter - White Circle
This site was designed with the
.com
website builder. Create your website today.
Start Now