FIRST DROP

RENT-A-GIRLFRIEND

CHORDS ~ By Fefe (Tron544)

 

Chords used/Acordes utilizados:

A: x.0.2.2.2.0 or 5.7.7.6.5.5  -  Asus2: x.0.2.2.0.0
B: x.2.4.4.4.2
C°7: x.3.4.2.4.x
C#m: x.4.6.6.5.4
D#8: x.6.x.8.x.x  -  E8: x.7.x.9.x.x
E: 0.2.2.1.0.0
F#: 2.4.4.3.2.2
G#: 4.6.6.5.4.4

 

| B |
| A E | B C#m | A E | B C°7 C#m |

 


    Asus2     E         B                Asus2
   Minna to watashi wa onaji you dakedo betsumono
     Asus2    E       B            Asus2
   Dokidoki dekinai dare ga aite demo
      A        E        B                C#m
   "Mou ii" ja nante kuchiguse de gomakashiteru kedo
     A        E        B        C°7  C#m  D#8 E8
   honto wa itsudemo sagashiteta unmei

 


       B                       C°7
   "Moshi ka shitara" wa umaku narete bakka
     C#m                      F#
   Yureru mukatsuki dake ga mitsumeteru
        A
   Dame da akiramenakucha tte
       B                 E      A  G#
   Sou iikikaseteita no ni

 


           A      E        B      C#m
   Koi wa kyuuten chokka yosougai datta
     A      E          B   C°7  C#m
   Suki tte kimochi tsugeteru araato
     A     E       B   C#m
   Kimi wo zutto matteitan da
      A                        B       C°7
   Ureshikute nakechau yo kono kodou tomaranai
     C#m               F#
   Watashi to deatte kurete arigatou
A                         B
   Yukkuri no koto ga sawagidashite hashiru

 


||: A E | B C#m | A E | B C°7 C#m :|| x2
| A |

FIRST DROP - Tron544
00:00 / 00:00
DONATE%20BUTTON%20(EN)_edited.png

TABS ~ By Fefe (Tron544)

 

Intro:

GUITAR (Riff):

e|---------------------------------------------------------|
B|--12-------------------------12--------------------------|
G|------9--9--9-9--9-9-9-8--9------9--9--9-9--9-9-9-11--9--|
D|--9--------------------------9---------------------------|
A|------7--7--7-7--7-7-7-6--7------7--7--7-7--7-7-7-9---7--|
E|---------------------------------------------------------|

GUITAR (Lead):

e|-----------------------------------------------------------|
B|--10--10--10--10-9--9-9--9--9-9-7--7--7--7-9--9-9--9--9-9--|
G|--9---9---9---9--9--9-9--9--9-9-8--8--8--8-9--9-9--9--9-9--|
D|-----------------------------------------------------------|
A|-----------------------------------------------------------|
E|-----------------------------------------------------------|

GUITAR (Riff):

e|-----------------------------------------------------------|
B|--12-------------------------------------------------------|
G|------9--9--9-9--9-9-9-8--9--14--#-#-13--#-9--9-9-9-11--9--|
D|--9--------------------------------------------------------|
A|------7--7--7-7--7-7-7-6--7--12--#-#-11--#-7--7-7-7-9---7--|
E|-----------------------------------------------------------|

GUITAR (Lead):

e|-----------------------------------------------------------|
B|--10--10--10--10-9--9-9--9--9-9-10--#-#-7--#-9--9-9--9--9--|
G|--9---9---9---9--9--9-9--9--9-9-11--#-#-8--#-9--9-9--9--9--|
D|-----------------------------------------------------------|
A|-----------------------------------------------------------|
E|-----------------------------------------------------------|

 


Verse/Estrofa:

GUITAR (Vocals):

e|-----|----------------------------------------------------------------------------------------------------|
B|-----|----------------------------------------------------------------------------------------------------|
G|--9--|--9h11------9--9------------------------------11--9--11--9--11--9--11--11----11/13----11----9----9--|
D|-----|----------------------11--11------9--9-----9--------------------------------------------------------|
A|-----|----------------------------------------------------------------------------------------------------|
E|-----|----------------------------------------------------------------------------------------------------|

e|------------------------------------------------------------------------------------------------|
B|------------------------------------------------------------------------------------------------|
G|--9h11------9--9-------------------------------11--9--11--9--11---11/13-----9----------------9--|
D|----------------------11--11------9--9------9---------------------------------------------------|
A|------------------------------------------------------------------------------------------------|
E|------------------------------------------------------------------------------------------------|

GUITAR (Vocals):

e|-----------------------------------------------------------------------------------------------------|
B|-----------------------------------------------------------------------------------------------------|
G|--9h11------9--9-------------------------------11--9--11--9--11--9--11--11----11/13----11----9----9--|
D|----------------------11--11------9--9------9--------------------------------------------------------|
A|-----------------------------------------------------------------------------------------------------|
E|-----------------------------------------------------------------------------------------------------|

GUITAR (Lead):

e|----------0-------------------------------------0-------------------2------0----|
B|-----------------------------0-----------------------------------0--------------|
G|-------2------------------1------------------4----------------2-----------------|
D|--2------------------2------------------4------------------2--------------------|
A|--------------------------------------------------------------------------------|
E|--------------------------------------------------------------------------------|

GUITAR (Vocals):

e|--------------------------------------------------------------------------------------------------------|
B|--10/12------9------------------------------------------------------------------------------------------|
G|----------------11/13------11--11------9--9------9--11--9--11--9-9-11/13---11-----11--9--------------9--|
D|--------------------------------------------------------------------------------------------------------|
A|--------------------------------------------------------------------------------------------------------|
E|--------------------------------------------------------------------------------------------------------|

GUITAR (Lead):

e|----------0-------------------------------------0---------------7--5--4-h5-p4---------|
B|-----------------------------0-------------------------------------------------5------|
G|-------2------------------1------------------4-----5---5---6--------------------------|
D|--2------------------2------------------4---------------------------------------------|
A|---------------------------------------------------3---3---4--------------------------|
E|--------------------------------------------------------------------------------------|

 


Pre-Chorus/Pre-Estribillo:

GUITAR (Vocals):

e|----------------------------------------------------------|
B|----------------------------------------------------------|
G|--11--9--11--9--11--9--11--9--11--9--11--11/13----9----9--|
D|----------------------------------------------------------|
A|----------------------------------------------------------|
E|----------------------------------------------------------|

GUITAR (Lead):

e|----------------------------------------|
B|-------------------7----------7/10------|
G|--4-------------------------------------|
D|-------------------4----------4/7-------|
A|--2-------------------------------------|
E|----------------------------------------|

GUITAR (Vocals):

e|--------------------------------------------------------------|
B|--------------------------------------------------------------|
G|--11--9-9-11--9-9-11--9--11--9--11--9--11--11--/13------11-9--|
D|--------------------------------------------------------------|
A|--------------------------------------------------------------|
E|--------------------------------------------------------------|

GUITAR (Lead):

e|------------------------------------------|
B|--9----------------7--------4/5--4--------|
G|------------------------------------6--4--|
D|--6----------------4----------------------|
A|------------------------------------------|
E|------------------------------------------|

GUITAR (Vocals):

e|--------------------------------------------------------------------|
B|--------------------------------------------------------------------|
G|--11---9-11-9-11-9-11/13---9---11-9-11--9-9-11--9--11/13---9-----9--|
D|--------------------------------------------------------------------|
A|--------------------------------------------------------------------|
E|--------------------------------------------------------------------|

GUITAR (Lead):

e|----------------------------------------------------|
B|--(5)--x--x--x--x--x--x--x--7--7--7--7--7--7--7--7--|
G|--(6)--x--x--x--x--x--x--x--8--8--8--8--8--8--8--8--|
D|----------------------------------------------------|
A|----------------------------------------------------|
E|----------------------------------------------------|

GUITAR (Vocals):

e|--------------------------------------|
B|--------------------------------------|
G|----------------------------9--11-9---|
D|--------------------------------------|
A|--------------------------------------|
E|--------------------------------------|

GUITAR (Lead):

e|----------------------------------------------------|
B|--9--9--9--9--9--9--9--9--#-#-10--#-10-#-#-9--------|
G|--9--9--9--9--9--9--9--9--#-#-9---#-9--#-#-8--------|
D|----------------------------------------------------|
A|----------------------------------------------------|
E|----------------------------------------------------|


Chorus/Estribillo:

GUITAR (Vocals):

e|----------------------------------------------------------|
B|--10/12----9----------------10/12----9-------------12/14--|
G|---------------11---9----9---------------11---9-----------|
D|----------------------------------------------------------|
A|----------------------------------------------------------|
E|----------------------------------------------------------|

GUITAR (Lead):

e|-----------------------------------------------------------|
B|--10--10--10--10-9--9-9--9--9-9-7--7--7--7-9--9-9--9--9-9--|
G|--9---9---9---9--9--9-9--9--9-9-8--8--8--8-9--9-9--9--9-9--|
D|-----------------------------------------------------------|
A|-----------------------------------------------------------|
E|-----------------------------------------------------------|

GUITAR (Vocals):

e|--------------------------------------------------------|
B|--12------------9-9----10/12--10--9------9--------------|
G|--------9---11-----------------------11----11---9----9--|
D|--------------------------------------------------------|
A|--------------------------------------------------------|
E|--------------------------------------------------------|

GUITAR (Lead):

e|-------------------------------------------------------------|
B|--10--10--10--10-9--9-9--9--9-9-10--#-#-7--#-9--9-9--9--9-9--|
G|--9---9---9---9--9--9-9--9--9-9-11--#-#-8--#-9--9-9--9--9-9--|
D|-------------------------------------------------------------|
A|-------------------------------------------------------------|
E|-------------------------------------------------------------|

GUITAR (Vocals):

e|----------------------------9/11------------------------|
B|--10/12----9------------------------12---10---9---------|
G|---------------11---9----9-------------------------9-9--|
D|--------------------------------------------------------|
A|--------------------------------------------------------|
E|--------------------------------------------------------|

GUITAR (Lead):

e|-----------------------------------------------------------|
B|--10--10--10--10-9--9-9--9--9-9-7--7--7--7-9--9-9--9--9-9--|
G|--9---9---9---9--9--9-9--9--9-9-8--8--8--8-9--9-9--9--9-9--|
D|-----------------------------------------------------------|
A|-----------------------------------------------------------|
E|-----------------------------------------------------------|

GUITAR (Vocals):

e|------------------------------------------------------------|
B|------9-9-----------9-9-----------9-9---10/12--10--9-9---9--|
G|--11--------9-9-11--------9-9-11----------------------------|
D|------------------------------------------------------------|
A|------------------------------------------------------------|
E|------------------------------------------------------------|

GUITAR (Lead):

e|------------------------------------------------------|
B|------------------------------------------------------|
G|--9--9--9--9--6--6--4--4--8--8--9--9--11--11--14--14--|
D|------------------------------------------------------|
A|--7--7--7--7--4--4--2--2--6--6--7--7--9---9---12--12--|
E|------------------------------------------------------|

GUITAR (Vocals):

e|----------------------------------------12---------------|
B|--12--9--------------------------------------------------|
G|---------11--11-11---9----9--9--11--13--------13--11--9--|
D|---------------------------------------------------------|
A|---------------------------------------------------------|
E|---------------------------------------------------------|

GUITAR (Lead):

e|----------------------------------------------12---------------|
B|---------------------------------------------------------------|
G|--13--13--13--13--13--13--13--13--11--11--11--------13--11--9--|
D|---------------------------------------------------------------|
A|--11--11--11--11--11--11--11--11--9---9---9--------------------|
E|---------------------------------------------------------------|

GUITAR (Vocals):

e|------------------------------------------------------------|
B|-----------------------------------9--10--9--10--9----------|
G|----11-9-11-9-11-9-11/13---9---9-9-------------------9---9--|
D|------------------------------------------------------------|
A|------------------------------------------------------------|
E|------------------------------------------------------------|

GUITAR (Lead):

e|------------------------------------------------------|
B|--12------------9-----------10--10--10--10--9---9-----|
G|------9------9-----11--9----9---9---9---9---9---9-----|
D|---------11-------------------------------------------|
A|------------------------------------------------------|
E|------------------------------------------------------|

 


Outro:

GUITAR (Vocals):

e|--------------------------------------------|
B|----------------------------12/16----16\12--|
G|--------------------------------------------|
D|--------------------------------------------|
A|--------------------------------------------|
E|--------------------------------------------|

GUITAR (Riff):

e|---------------------------------------------------------|
B|--12-------------------------12--------------------------|
G|------9--9--9-9--9-9-9-8--9------9--9--9-9--9-9-9-11--9--|
D|--9--------------------------9---------------------------|
A|------7--7--7-7--7-7-7-6--7------7--7--7-7--7-7-7-9---7--|
E|---------------------------------------------------------|

GUITAR (Lead):

e|-----------------------------------------------------------|
B|--10--10--10--10-9--9-9--9--9-9-7--7--7--7-9--9-9--9--9-9--|
G|--9---9---9---9--9--9-9--9--9-9-8--8--8--8-9--9-9--9--9-9--|
D|-----------------------------------------------------------|
A|-----------------------------------------------------------|
E|-----------------------------------------------------------|

GUITAR (Vocals):

e|-------------------------------------------|
B|----------------------------9/10----9-h10--|
G|-------------------------------------------|
D|-------------------------------------------|
A|-------------------------------------------|
E|-------------------------------------------|

GUITAR (Riff):

e|-----------------------------------------------------------|
B|--12-------------------------------------------------------|
G|------9--9--9-9--9-9-9-8--9--14--#-#-13--#-9--9-9-9-11--9--|
D|--9--------------------------------------------------------|
A|------7--7--7-7--7-7-7-6--7--12--#-#-11--#-7--7-7-7-9---7--|

E|-----------------------------------------------------------|

GUITAR (Lead):

e|-------------------------------------------------------------|
B|--10--10--10--10-9--9-9--9--9-9-10--#-#-7--#-9--9-9--9--9-9--|
G|--9---9---9---9--9--9-9--9--9-9-11--#-#-8--#-9--9-9--9--9-9--|
D|-------------------------------------------------------------|
A|-------------------------------------------------------------|
E|-------------------------------------------------------------|

GUITAR (Vocals):

e|-----------------------------------------------|
B|--p9--------------------------10/12------------|
G|---------------------------------------13-p11--|
D|-----------------------------------------------|
A|-----------------------------------------------|
E|-----------------------------------------------|

GUITAR (Riff):

e|---------------------------------------------------------|
B|--12-------------------------12--------------------------|
G|------9--9--9-9--9-9-9-8--9------9--9--9-9--9-9-9-11--9--|
D|--9--------------------------9---------------------------|
A|------7--7--7-7--7-7-7-6--7------7--7--7-7--7-7-7-9---7--|
E|---------------------------------------------------------|

GUITAR (Lead):

e|-----------------------------------------------------------|
B|--10--10--10--10-9--9-9--9--9-9-7--7--7--7-9--9-9--9--9-9--|
G|--9---9---9---9--9--9-9--9--9-9-8--8--8--8-9--9-9--9--9-9--|
D|-----------------------------------------------------------|
A|-----------------------------------------------------------|
E|-----------------------------------------------------------|

GUITAR (Vocals):

e|------------------------------------------------|
B|------------------------------------------------|
G|--\9--------------------------8----/9--9--------|
D|------------------------------------------------|
A|------------------------------------------------|
E|------------------------------------------------|

GUITAR (Riff):

e|-------------------------------------------------------------------|
B|--12---------------------------------------------------------------|
G|------9--9--9-9--9-9-9-8--9--14--#-#-13--#-9--9-9-9-11--9----------|
D|--9----------------------------------------------------------------|
A|------7--7--7-7--7-7-7-6--7--12--#-#-11--#-7--7-7-7-9---7----------|
E|-------------------------------------------------------------------|

GUITAR (Lead):

e|----------------------------------------------------------------------|
B|--10--10--10--10-9--9-9--9--9-9-10--#-#-7--#-9--9-9--9--9-9-----------|
G|--9---9---9---9--9--9-9--9--9-9-11--#-#-8--#-9--9-9--9--9-9-----------|
D|-------------------------------------------------------------7--------|
A|-------------------------------------------------------------7--------|
E|-------------------------------------------------------------5--------|

©2015 by Fefe - Tron544

Sigueme en:

  • YouTube - White Circle
  • Facebook - White Circle
  • Instagram - White Circle
  • Twitter - White Circle
This site was designed with the
.com
website builder. Create your website today.
Start Now