~ FIRE!! ~

TABLATURAS ~ By Fefe - Tron544

 

Intro:

 

GUITAR 1:

 

e|------------------------------------------------------|

B|------------------------------------------------------|

G|--7--7--7---5--5--5--5---4--4--4--4---3--3--3---5--5--|

D|--7--7--7---5--5--5--5---4--4--4--4---3--3--3---5--5--|

A|--5--5--5---3--3--3--3---2--2--2--2---1--1--1---3--3--|

E|------------------------------------------------------|

 

GUITAR 2:

 

e|------------------------------15-p-14------|

B|--------------15-/-17-\-15-------------15--|

G|----------14-------------------------------|

D|--12--16-----------------------------------|

A|-------------------------------------------|

E|-------------------------------------------|

 

GUITAR 1:

 

e|------------------------------------------------------|

B|------------------------------------------------------|

G|--7--7--7---5--5--5--5---4--4--4--4---3--3--3---5--5--|

D|--7--7--7---5--5--5--5---4--4--4--4---3--3--3---5--5--|

A|--5--5--5---3--3--3--3---2--2--2--2---1--1--1---3--3--|

E|------------------------------------------------------|

 

GUITAR 2:

 

e|------------------------------15-p-14-----------15--20-b--|

B|--------------15-/-17-\-15-------------15---15------------|

G|----------14----------------------------------------------|

D|--12--16--------------------------------------------------|

A|----------------------------------------------------------|

E|----------------------------------------------------------|

 

GUITAR 1:

 

e|-----------------------------------------------------------------------------------------|

B|-----------------------------------------------------------------------------------------|

G|-----------------------------------------------------------------------------------------|

D|--9--x--x--x--x--x---7--x--x--x--x--7--7--7---9--x--x--x--x--x---7--x--x--x--x--x--x--x--|

A|--9--x--x--x--x--x---7--x--x--x--x--7--7--7---9--x--x--x--x--x---7--x--x--x--x--x--x--x--|

E|--7--x--x--x--x--x---5--x--x--x--x--5--5--5---7--x--x--x--x--x---5--x--x--x--x--x--x--x--|

 

GUITAR 2:

 

e|-----------------------------------------------|

B|--12--12---------------------(10)--------------|

G|---------------------(7)--------------(7)------|

D|----------9------(7)-----(7)------(7)-----(7)--|

A|-----------------------------------------------|

E|-----------------------------------------------|

 

Verse:

 

GUITAR 1:

 

e|-----------------------------------------------------------------------------------------------------|

B|-----------------------------------------------------------------------------------------------------|

G|--7--x--x--7--x--x--x--x---6--x--x--6--x--x--x--x---4--x--x--4--x--x--x--x---2--x--x--2--x--x--x--x--|

D|--7--x--x--7--x--x--x--x---7--x--x--7--x--x--x--x---4--x--x--4--x--x--x--x---2--x--x--2--x--x--x--x--|

A|--5--x--x--5--x--x--x--x---4--x--x--4--x--x--x--x---2--x--x--2--x--x--x--x---0--x--x--0--x--x--x--x--|

E|-----------------------------------------------------------------------------------------------------|

 

GUITAR 2:

 

e|-------------------------------------------------------------|

B|-------------------------------------------------------------|

G|------------------------------------------7--6---------------|

D|--7--7-----9--7--7------5--7--7--7--7--7--------7------5--7--|

A|--------9------------9------------------------------9--------|

E|-------------------------------------------------------------|

 

GUITAR 1:

 

e|------------------------------------------------------------------------------------|

B|------------------------------------------------------------------------------------|

G|------------------------5--5-------3--x--x--3--x--x--x--x---5--x--x--5--x--5--5--5--|

D|--5--x--x--5--x--x--x---5--5--5----3--x--x--3--x--x--x--x---5--x--x--5--x--5--5--5--|

A|--5--x--x--5--x--x--x---3--3--5----1--x--x--1--x--x--x--x---3--x--x--3--x--3--3--3--|

E|--3--x--x--3--x--x--x---------3-----------------------------------------------------|

 

GUITAR 2:

 

e|-------------------------------------------|

B|-------------------------------------------|

G|-------------------------------------------|

D|--7----------------------------------------|

A|-----5--5-----5--5--7--8---7---5---h-7--7--|

E|-------------------------------------------|

 

GUITAR 1:

 

e|-----------------------------------------------------------------------------------------------------|

B|-----------------------------------------------------------------------------------------------------|

G|--7--x--x--7--x--x--x--x---6--x--x--6--x--x--x--x---4--x--x--4--x--x--x--x---2--x--x--2--x--x--x--x--|

D|--7--x--x--7--x--x--x--x---7--x--x--7--x--x--x--x---4--x--x--4--x--x--x--x---2--x--x--2--x--x--x--x--|

A|--5--x--x--5--x--x--x--x---4--x--x--4--x--x--x--x---2--x--x--2--x--x--x--x---0--x--x--0--x--x--x--x--|

E|-----------------------------------------------------------------------------------------------------|

 

GUITAR 2:

 

e|-------------------------------------------------------------|

B|-------------------------------------------------------------|

G|------------------------------------------7--6---------------|

D|--7--7-----9--7--7------5--7--7--7--7--7--------7------5--7--|

A|--------9------------9------------------------------9--------|

E|-------------------------------------------------------------|

 

GUITAR 1:

 

e|-----------------------------------------5--5---5--5---5--|

B|-----------------------------------------8--7---8--8---7--|

G|------------------------3--3--5--5--5----7--7---7--7---7--|

D|--5--x--x--5--x--x--x---3--3--5--5--5----7--7---7--7---7--|

A|--5--x--x--5--x--x--x---1--1--3--3--3----5--5---5--5---5--|

E|--3--x--x--3--x--x--x-------------------------------------|

 

GUITAR 2:

 

e|--------------------------------------|

B|--------------------------------------|

G|--------------------------------------|

D|--7-----------------------------------|

A|-----5--5-----5--7--8--8--7--5--7--5--|

E|--------------------------------------|

 

 

Pre-Chorus/Pre-Estribillo:

 

GUITAR 1:

 

e|--2---2---------3---3---------2---2---------0---0--------|

B|--3------3------3------3------3------3------2------2-----|

G|--4---------4---0---------0---2---------2---2---------2--|

D|--4-------------0-------------0-------------2------------|

A|--2-------------2---------------------------0------------|

E|----------------3----------------------------------------|

 

GUITAR 2:

 

e|--------|-----------------------------------------------------------|

B|--------|-------------------------7--7--7--7--8--7------------------|

G|--7--7--|--6--7---7--6--7---7--9--------------------9---------7--6--|

D|--------|----------------------------------------------7--7---------|

A|--------|-----------------------------------------------------------|

E|--------|-----------------------------------------------------------|

 

GUITAR 1:

 

e|--2---2---------3---3---------2---2---------0---0--------|--0------15-p-14------------------------|

B|--3------3------3------3------3------3------2------2-----|--1---------------15--------------------|

G|--4---------4---0---------0---2---------2---2---------2--|--0-------------------14-\-12-\-11------|

D|--4-------------0-------------0-------------2------------|--2---------------------------------12--|

A|--2-------------2---------------------------0------------|--3-------------------------------------|

E|----------------3----------------------------------------|----------------------------------------|

 

GUITAR 2:

 

e|-----------------------------------------------------------------|---------|

B|----------------------------7--7--7--7--8--7------------7--------|---------|

G|--6--7---7--7--6--7---7--9--------------------9------------9--7--|--6-/-7--|

D|-------------------------------------------------7--7------------|---------|

A|-----------------------------------------------------------------|---------|

E|-----------------------------------------------------------------|---------|

 

 

Estribillo:

 

GUITAR 1:

 

e|-----|-----------------------------------------------------|

B|-----|-----------------------------------------------------|

G|--5--|--7--7--7--7---6--6--6--6----------------4--4--4--4--|

D|--5--|--7--7--7--7---7--7--7--7---4--4--4--4---4--4--4--4--|

A|--3--|--5--5--5--5---4--4--4--4---4--4--4--4---2--2--2--2--|

E|-----|----------------------------2--2--2--2---------------|

 

GUITAR 2:

 

e|--------|----------------------------------------------------------|

B|--------|------------------------------------7---8--7--------------|

G|--------|------7--7-------------9--9---7--9------------9--7--9--7--|

D|-----5--|--7-------------5--7--------------------------------------|

A|--9-----|-------------9--------------------------------------------|

E|--------|----------------------------------------------------------|

 

GUITAR 1:

 

e|------------------------------------------------------|

B|-------------------------------8--8--7----------------|

G|--5--5--5--5----------------7--7--7--7---3--3---5--5--|

D|--5--5--5--5---5--5--5--5---7--7--7--7---3--3---5--5--|

A|--3--3--3--3---5--5--5--5---5--5--5--5---1--1---3--3--|

E|---------------3--3--3--3-----------------------------|

 

GUITAR 2:

 

e|----------------------------------------------------------|

B|-----------------7----------------------------------------|

G|--9--9--9--9--9-----9--7---------7--7--7------------------|

D|---------------------------9--9-----------9--7---------5--|

A|----------------------------------------------------9-----|

E|----------------------------------------------------------|

 

GUITAR 1:

 

e|-----------------------------------------------------|

B|-----------------------------------------------------|

G|--7--7--7--7---6--6--6--6----------------4--4--4--4--|

D|--7--7--7--7---7--7--7--7---4--4--4--4---4--4--4--4--|

A|--5--5--5--5---4--4--4--4---4--4--4--4---2--2--2--2--|

E|----------------------------2--2--2--2---------------|

 

GUITAR 2:

 

e|----------------------------------------------------------|

B|------------------------------------7---8--7--------------|

G|------7--7-------------9--9---7--9------------9--7--9--7--|

D|--7-------------5--7--------------------------------------|

A|-------------9--------------------------------------------|

E|----------------------------------------------------------|

 

GUITAR 1:

 

e|-----------------------------------------------------|

B|-------------------------------8--8--7---------------|

G|--5--5--5--5----------------7--7--7--7---5--5--5--5--|

D|--5--5--5--5---5--5--5--5---7--7--7--7---5--5--5--5--|

A|--3--3--3--3---5--5--5--5---5--5--5--5---3--3--3--3--|

E|---------------3--3--3--3----------------------------|

 

GUITAR 2:

 

e|-------------------------------------------------------------------|

B|-----------------7-------------------------------------------------|

G|--9--9--9--9--9-----9--7---------7--7--7------------7--7-----7--7--|

D|---------------------------9--9-----------9--7------------9--------|

A|-------------------------------------------------------------------|

E|-------------------------------------------------------------------|

 

GUITAR 1:

 

e|-----------------------------------------------------|------------------|

B|-----8--8--7-------------------8--8--7---------------|-----8--8--7------|

G|--7--7--7--7---5--5--5--5---7--7--7--7---5--5--5--5--|--7--7--7--7---5--|

D|--7--7--7--7---5--5--5--5---7--7--7--7---5--5--5--5--|--7--7--7--7---5--|

A|--5--5--5--5---3--3--3--3---5--5--5--5---3--3--3--3--|--5--5--5--5---3--|

E|-----------------------------------------------------|------------------|

 

GUITAR 2:

 

e|----------------------------------------------------------|-------------------------------|

B|--7-------------------------------------------------------|--10---------------------------|

G|-----7------7--7-----7--7--7------------7--7-----7--7--7--|------7------7--7-----7--7--7--|

D|------------------9-----------9--7------------9-----------|-------------------9-----------|

A|----------------------------------------------------------|-------------------------------|

E|----------------------------------------------------------|-------------------------------|

 

FIRE!! - Tron544
00:00 / 00:00

©2019 by Fefe - Tron544

Sigueme en:

  • YouTube - White Circle
  • Facebook - White Circle
  • Instagram - White Circle
  • Twitter - White Circle
This site was designed with the
.com
website builder. Create your website today.
Start Now