~ FILAMENT ~

ACORDES ~ Click aquí para Descargarlos!

 

TABLATURAS ~ By Fefe - Tron544

 

Intro:

 

eb|------------------------------------------------------|

Bb|--12--13--12------------------------------------------|

Gb|--------------14--12--14--12------11--12--14--12------|

Db|------------------------------14------------------14--|

Ab|------------------------------------------------------|

Eb|------------------------------------------------------|

 

eb|----------------------------------------------------------------|

Bb|----------------------------------------------------------------|

Gb|-----------------------11---12--11------12--11----------11------|

Db|--12------10--12--14----------------14----------14--13------14--|

Ab|----------------------------------------------------------------|

Eb|----------------------------------------------------------------|

 

eb|-------------------------------------------------------------|

Bb|-------------------------------------------------------------|

Gb|------------------------11---12--11------12--11----------11--|

Db|--12--10--12----12--14---------------14----------14--13------|

Ab|-------------------------------------------------------------|

Eb|-------------------------------------------------------------|

 

eb|--------------------------------------------|----------------------------------------------------|

Bb|--------------------------------------------|----------------------------------------------------|

Gb|------15--14--12--14--12--------15--14--12--|------15--14--12--14--12--------15--14--12--14--12--|

Db|--12------------------------12--------------|--12------------------------12----------------------|

Ab|--------------------------------------------|----------------------------------------------------|

Eb|--------------------------------------------|----------------------------------------------------|

 

eb|--------------------------------------------|----------------------------------------------------|

Bb|--------------------------------------------|----------------------------------------------------|

Gb|------15--14--12--14--12--------15--14--12--|------15--14--12--14--12--------15--14--12--14--12--|

Db|--12------------------------12--------------|--12------------------------12----------------------|

Ab|--------------------------------------------|----------------------------------------------------|

Eb|--------------------------------------------|----------------------------------------------------|

 

 

Verse/Estrofa:

 

eb|----------------------------------------------------|

Bb|----------------------------------------------------|

Gb|--12--11--------------------------------------------|

Db|----------14--12--------------------------------12--|

Ab|------------------14--12--14----12--14--12--14------|

Eb|----------------------------------------------------|

 

eb|----------------------------------------------------|

Bb|----------------------------------------------------|

Gb|--12--11----------12--14--12----11--12--11--12--11--|

Db|----------14--12------------------------------------|

Ab|----------------------------------------------------|

Eb|----------------------------------------------------|

 

 

Pre-Chorus/Pre-Estribillo:

 

eb|-----------------------------------------|--------------------------------|

Bb|--12------12-----------------------------|--12------12--------12--15--12--|

Gb|------14--------14--12--11--12---11------|------14--------14--------------|

Db|-------------------------------------14--|--------------------------------|

Ab|-----------------------------------------|--------------------------------|

Eb|-----------------------------------------|--------------------------------|

 

 

Chorus/Estribillo:

 

eb|------------------------------------------------------------|

Bb|----------12--15--13--12------------------------------------|

Gb|--------------------------14--11--12----11--12--11--12--11--|

Db|--14--14----------------------------------------------------|

Ab|------------------------------------------------------------|

Eb|------------------------------------------------------------|

 

eb|----------------------------------------------------------------|

Bb|----------12--15--13--12------------------------------------12--|

Gb|--------------------------14--11--12----12--12--11--12--14------|

Db|--14--14--------------------------------------------------------|

Ab|----------------------------------------------------------------|

Eb|----------------------------------------------------------------|

 

eb|-------------------------------------------|--------------------------------|--------------|

Bb|--12--12-------------------------------12--|--13--12--13----12--------------|------15--12--|

Gb|------------14--12--11--11-h-12----14------|--------------------14--11--12--|--------------|

Db|-------------------------------------------|--------------------------------|--14----------|

Ab|-------------------------------------------|--------------------------------|--------------|

Eb|-------------------------------------------|--------------------------------|--------------|

 

 

Outro:

 

eb|------------------------------------------|------------------------------------------|

Bb|------------------------------------------|------------------------------------------|

Gb|------------------15--------------15------|------------------15--------------15------|

Db|--14--14--14--14------14--14--14------14--|--14--14--14--14------14--14--14------14--|

Ab|------------------------------------------|------------------------------------------|

Eb|------------------------------------------|------------------------------------------|

 

eb|------------------------------------------|------------------------------------------|

Bb|------------------------------------------|------------------------------------------|

Gb|------------------15--------------15------|------------------15--------------15------|

Db|--14--14--14--14------14--14--14------14--|--14--14--14--14------14--14--14------14--|

Ab|------------------------------------------|------------------------------------------|

Eb|------------------------------------------|------------------------------------------|

 

 

Filament - Tron544
00:00 / 00:00

©2019 by Fefe - Tron544

Sigueme en:

  • YouTube - White Circle
  • Facebook - White Circle
  • Instagram - White Circle
  • Twitter - White Circle
This site was designed with the
.com
website builder. Create your website today.
Start Now