FIGHTING!

CAPTAIN TSUBASA J

TABS ~ By Fefe (Tron544)

 

Intro:

GUITAR (Rhythm):

e|-----|-----------------------------------------------------------------|
B|-----|-----------------------------------------------------------------|
G|--2--|---2-x-x-2-x-x-x-2-x-x-2-x-2-x-----------------------------------|
D|--2--|---2-x-x-2-x-x-x-2-x-x-2-x-2-x-4--4-x-x-4-x-x-x-4-x-x-4-x-4-x-3--|
A|--0--|---0-x-x-0-x-x-x-0-x-x-0-x-0-x-4--4-x-x-4-x-x-x-4-x-x-4-x-4-x-3--|
E|-----|-------------------------------2--2-x-x-2-x-x-x-2-x-x-2-x-2-x-1--|

e|------------------------------------------------------------|
B|------------------------------------------------------------|
G|-------------------------------4--4-4-x-x-4-x-----------6---|
D|---3-x-x-3-x-x-x-3-x-x-3-x-3-x-4--4-4-x-x-4-x-2--2-2-2--6---|
A|---3-x-x-3-x-x-x-3-x-x-3-x-3-x-2--2-2-x-x-2-x-2--2-2-2--4---|
E|---1-x-x-1-x-x-x-1-x-x-1-x-1-x----------------0--0-0-0------|


Verse/Estrofa:

GUITAR (Vocals):

e|---------------------------------------------------------|
B|---------------------------------------------------------|
G|-----------------------------4-4-4-4-4-6-7-6------4------|
D|--4-4-4-4-4-6--7--4--7--7--4------------------------7-6--|
A|---------------------------------------------------------|
E|---------------------------------------------------------|

GUITAR (Rhythm):

e|----------------------------------------------------------------------|
B|----------------------------------------------------------------------|
G|----------------------------------------------------2--2-2-x-x-2-x-x--|
D|--(4)-x-4-x-x-4-x-x-4-x-x-4-x-x-4-4-(2)-x-2-x-x-2-x-2--2-2-x-x-2-x-x--|
A|--(4)-x-4-x-x-4-x-x-4-x-x-4-x-x-4-4-(2)-x-2-x-x-2-x-0--0-0-x-x-0-x-x--|
E|--(2)-x-2-x-x-2-x-x-2-x-x-2-x-x-2-2-(0)-x-0-x-x-0-x-------------------|

GUITAR (Vocals):

e|----------------------------------------------------|
B|----------------------------------------------------|
G|--------------------------4-4-4-4-4-6-7-6-----------|
D|--4--6-7----4-4-4-6-7----------------------------4--|
A|----------------------------------------------------|
E|----------------------------------------------------|

GUITAR (Rhythm):

e|----------------------------------------------------------------|
B|----------------------------------------------------------------|
G|--(7)-x-7-x-x-7-x-x-7-x-x-7-x-x-7-7-(4)-x-4-x-4-4-x-6-----------|
D|--(7)-x-7-x-x-7-x-x-7-x-x-7-x-x-7-7-(4)-x-4-x-4-4-x-6-----------|
A|--(5)-x-5-x-x-5-x-x-5-x-x-5-x-x-5-5-(2)-x-2-x-2-2-x-4-----------|
E|---------------------------------------------------------1---4--|


Pre-Chorus/Pre-Estribillo:

GUITAR (Vocals):

e|-------------------------------------------------------|
B|----------------------------7-5-7----------------------|
G|--6-6-6-6--4-----4--6-------------6--4--6\2------------|
D|--------------7--------7--7----------------------7--6--|
A|-------------------------------------------------------|
E|-------------------------------------------------------|

GUITAR (Rhythm):

e|-----------------------------------------------------------------------------------|
B|-----------------------------------------------------------------------------------|
G|--(11)-x-11-x-11-11-x-10-x-x-10-x-x-10-10-10-(9)--x-9--x-9--9--x-8-x-x-8-x-x-4-----|
D|--(11)-x-11-x-11-11-x-11-x-x-11-x-x-11-11-11-(11)-x-11-x-11-11-x-7-x-x-7-x-x-4-----|
A|--(9)--x-9--x-9--9--x-8--x-x-8--x-x-8--8--8--(7)--x-7--x-7--7--x-6-x-x-6-x-x-2-----|
E|-----------------------------------------------------------------------------------|

GUITAR (Vocals):

e|--------------------------------------------------|
B|--------------------------------------------------|
G|-------------------------4/6-6-6-6-6-7--4---------|
D|--4--6-7----4-4--6-7------------------------------|
A|--------------------------------------------------|
E|--------------------------------------------------|

GUITAR (Rhythm):

e|-----------------------------------------------------------------|
B|-----------------------------------------------------------------|
G|--(7)-x-7-x-x-7-x-x-7-x-x-7-x-x-7-7-(9)-x-9--9-9--9--9-9-9--9-8--|
D|--(7)-x-7-x-x-7-x-x-7-x-x-7-x-x-7-7-(9)-x-9--9-9--9--9-9-9--9-8--|
A|--(5)-x-5-x-x-5-x-x-5-x-x-5-x-x-5-5-(7)-x-7--7-7--7--7-7-7--7-6--|
E|-----------------------------------------------------------------|

Fighting! - Tron544
00:00 / 00:00
DONATE%20BUTTON%20(EN)_edited.png

Chorus/Estribillo:

GUITAR (Vocals):

e|-----|-------------------------------------------------------|
B|--7--|----7--7-----------------5--5-5-5-5--------------------|
G|-----|---------7--4--6--7--4-4------------4-----4--6----4-6--|
D|-----|---------------------------------------7--------7------|
A|-----|-------------------------------------------------------|
E|-----|-------------------------------------------------------|

GUITAR (Rhythm):

e|-----|------------------------------------------------------------------|
B|-----|------------------------------------------------------------------|
G|--7--|---7-7-x-x-7-x-7--7-7-x-x-7-x-7-(6)-x-6-x-6-6-x-------------------|
D|--7--|---7-7-x-x-7-x-7--7-7-x-x-7-x-7-(6)-x-6-x-6-6-x-4--4-4-x-x-4-4-4--|
A|--5--|---5-5-x-x-5-x-5--5-5-x-x-5-x-5-(4)-x-4-x-4-4-x-4--4-4-x-x-4-4-4--|
E|-----|------------------------------------------------2--2-2-x-x-2-2-2--|

GUITAR (Vocals):

e|------------------------------------------------|
B|-------------------------7-5/7\5----------------|
G|--7-7-7-7-7-------------------------------------|
D|------------7--6--7----7------------------------|
A|------------------------------------------------|
E|------------------------------------------------|

GUITAR (Rhythm):

e|--------------------------------------------------------9----9-10-12-10-9-10---|
B|-----------------------------------------12b-12-10-9------12-------------------|
G|--(7)-x-7-x-x-7-x-9--9-9-x-x-9-9-9-------------------12------------------------|
D|--(7)-x-7-x-x-7-x-9--9-9-x-x-9-9-9--9-11---------------------------------------|
A|--(5)-x-5-x-x-5-x-7--7-7-x-x-7-7-7---------------------------------------------|
E|-------------------------------------------------------------------------------|

GUITAR (Vocals):

e|-------------------------------------------------------------|
B|--7--7--7-----------------7/9--9-9-9-5-7/9--7----------------|
G|----------7--4--6--7--4-4--------------------------6--7/9\7--|
D|-------------------------------------------------------------|
A|-------------------------------------------------------------|
E|-------------------------------------------------------------|

GUITAR (Rhythm):

e|------------------------------------------------------|
B|------------------------------------------------------|
G|--------------------(6)-x-6-x-6-6-x-------------------|
D|--------------------(6)-x-6-x-6-6-x-4--4-4-x-x-4-4-4--|
A|--------------------(4)-x-4-x-4-4-x-4--4-4-x-x-4-4-4--|
E|------------------------------------2--2-2-x-x-2-2-2--|

GUITAR (Vocals):


e|--------------------------------------------|
B|--------------------7-7h9------7------------|
G|----------------7-9---------------9---------|
D|--------------------------------------------|
A|--------------------------------------------|
E|--------------------------------------------|

GUITAR (Rhythm):

e|-----------------------------------------------------------|
B|-----------------------------------------------------------|
G|--(4)-x-4-x-x-4-x-4-x-4-x-4--4-4---------------------------|
D|--(4)-x-4-x-x-4-x-4-x-4-x-4--4-4-2--2-2-2-x-2-x-2--2-2-2---|
A|--(2)-x-2-x-x-2-x-2-x-2-x-2--2-2-2--2-2-2-x-2-x-2--2-2-2---|
E|---------------------------------0--0-0-0-x-0-x-0--0-0-0---|


Outro:

GUITAR (Rhythm):

e|-----|-----------------------------------------------------------------|
B|-----|-----------------------------------------------------------------|
G|--2--|---2-x-x-2-x-x-x-2-x-x-2-x-2-x--------------------------------7--|
D|--2--|---2-x-x-2-x-x-x-2-x-x-2-x-2-x-4--4-x-x-4-x-x-x-4-x-x-4-x-4-x-7--|
A|--0--|---0-x-x-0-x-x-x-0-x-x-0-x-0-x-4--4-x-x-4-x-x-x-4-x-x-4-x-4-x-5--|
E|-----|-------------------------------2--2-x-x-2-x-x-x-2-x-x-2-x-2-x----|

e|----------------12-p-10-p-9-----|
B|----------------------------10--|
G|---7-9--------------------------|
D|---7-9--------------------------|
A|---5-7--------------------------|
E|--------------------------------|

©2015 by Fefe - Tron544

Sigueme en:

  • YouTube - White Circle
  • Facebook - White Circle
  • Instagram - White Circle
  • Twitter - White Circle
This site was designed with the
.com
website builder. Create your website today.
Start Now