FIESTA

FAIRY TAIL

TABS ~ By Fefe (Tron544)

 

Intro:

 

e|--3--3---5--5---2--2--2---3--3---5--5---5--5--5--|

B|--3--3---5--5---3--3--3---3--3---5--5---7--7--7--|

G|--4--4---6--6---4--4--4---4--4---6--6---7--7--7--|

D|--5--5---7--7---4--4--4---5--5---7--7---7--7--7--|

A|--5--5---7--7---2--2--2---5--5---7--7---5--5--5--|

E|--3--3---5--5-------------3--3---5--5------------|

 

e|--3--3--3---2---2--2---5---5---5--5--|

B|--3--3--3---2---3--3---5---5---7--7--|

G|--4--4--4---2---4--4---6---6---7--7--|

D|--5--5--5---4---4--4---7---7---7--7--|

A|--5--5--5---4---2--2---7---7---5--5--|

E|--3--3--3---2----------5---5---------|

 

 

Verse/Estrofa:

 

GUITAR 1:

 

e|------------------------------------------------|

B|--------10----------10----------10----------10--|

G|-----7-----------7-----------7-----------7------|

D|--7-----------7-----------7-----------7---------|

A|------------------------------------------------|

E|------------------------------------------------|

 

GUITAR 2:

 

e|--------------------|-------------------------------------------------------------------------------------|

B|--------------------|-------------------------------------------------------------------------------------|

G|--------4-----4--6--|--7------------4--------4------------------------------------------------------------|

D|--5--7-----7--------|-----7--7---4-----7--4-----7---4--5--4--4--4--4--4--4--4--5--7--7---5--4-------------|

A|--------------------|--------------------------------------------------------------------------5----5--5--|

E|--------------------|-------------------------------------------------------------------------------------|

 

GUITAR 1:

 

e|--------------------------------7--5----------------9--|

B|--------10----------10----------------8---------10-----|

G|-----7-----------7-----------7---------------9---------|

D|--7-----------7-----------5---------------7------------|

A|-------------------------------------------------------|

E|-------------------------------------------------------|

 

GUITAR 2:

 

e|-----------------------------------------------------------------------------------|

B|-----------------------------------------------------------------------------------|

G|--------------------------------------------------------------------------------6--|

D|--7--5--4---------------7--5--4------------4--5----5--5--4--5--7----7--9--7--9-----|

A|------------5--5--5--5------------4--5--7------------------------------------------|

E|-----------------------------------------------------------------------------------|

 

GUITAR 1:

 

e|--3--3----0--0----3--3---0--0---5--5--5--|

B|--3--3----2--2----3--3---2--2---7--7--7--|

G|--4--4----2--2----4--4---2--2---7--7--7--|

D|--5--5----2--2----5--5---2--2---7--7--7--|

A|--5--5----0--0----5--5---0--0---5--5--5--|

E|--3--3------------3--3-------------------|

 

GUITAR 2:

 

e|--------------------------------------------------------------------------------------------|

B|---------------------------------------------------------------------------7----------------|

G|--7--7--7--7--7---7--6-----------------------------------------7--6--7--9-----9--7-------6--|

D|------------------------9--7--7--7--7--7---7------------------------------------------7-----|

A|----------------------------------------------10--9--10----10-------------------------------|

E|--------------------------------------------------------------------------------------------|

 

GUITAR 1:

 

e|--3--3---0---2--|

B|--3--3---2---5--|

G|--4--4---2---4--|

D|--5--5---2---4--|

A|--5--5---0---2--|

E|--3--3----------|

 

GUITAR 2:

 

e|----------------------------------------------------|

B|----------------------------------------------------|

G|--7--7--7--7--7---6---------------------9---8----6--|

D|---------------------9--7--7--7--7--7---------------|

A|----------------------------------------------------|

E|----------------------------------------------------|

 

GUITAR 1:

 

e|--3-------2---0----0---3----3---0---0---0---0---0--0--0--0--0--0--0--|

B|--3-------3---2----0---3----3---2---2---2---2---2--2--2--2--2--2--2--|

G|--4-------2---2----1---4----4---2---2---2---2---2--2--2--2--2--2--2--|

D|--5-------0---2----2---5----5---2---2---2---2---2--2--2--2--2--2--2--|

A|--5-----------0----2---5----5---0---0---0---0---0--0--0--0--0--0--0--|

E|--3----------------0---3----3----------------------------------------|

 

GUITAR 2:

 

e|----------------------------------------------------------------------------------|

B|--------------------7------------------------7------8--7-----8--7-----7-----------|

G|--7--7--7--7--7--9------6--7--7--7--7--7--9------7--------7--------7-----9--7--9--|

D|----------------------------------------------------------------------------------|

A|----------------------------------------------------------------------------------|

E|----------------------------------------------------------------------------------|

Fiesta - Tron544
00:00 / 00:00
DONATE%20BUTTON%20(EN)_edited.png

Chorus/Estribillo:

 

GUITAR 1:

 

e|--3--3---5--5---2--2--2---3--3---5--5---5--5--5--|

B|--3--3---5--5---3--3--3---3--3---5--5---7--7--7--|

G|--4--4---6--6---4--4--4---4--4---6--6---7--7--7--|

D|--5--5---7--7---4--4--4---5--5---7--7---7--7--7--|

A|--5--5---7--7---2--2--2---5--5---7--7---5--5--5--|

E|--3--3---5--5-------------3--3---5--5------------|

 

GUITAR 2:

 

e|--------------|----------------------------------------------------------------------------------------|

B|--7-----------|-------------------------------7--7------------------------------------------7----------|

G|-----9--7--9--|------------7--6--7--6---------------9--7--9------------7--6--7--6-----7--9-------------|

D|--------------|--9--9--9---------------7--9------------------9--9--9---------------7-------------7--9--|

A|--------------|----------------------------------------------------------------------------------------|

E|--------------|----------------------------------------------------------------------------------------|

 

GUITAR 1:

 

e|--3--3--3---2---2--2---3--3---5--5--|

B|--3--3--3---2---3--3---3--3---5--5--|

G|--4--4--4---2---4--4---4--4---6--6--|

D|--5--5--5---4---4--4---5--5---7--7--|

A|--5--5--5---4---2--2---5--5---7--7--|

E|--3--3--3---2----------3--3---5--5--|

 

GUITAR 2:

 

e|-------------------------------------------------------------------------------|

B|----------------------------------------------------------7--------7-----------|

G|--7--6--9--7--6--7--7--6--7--9--7----------------6--7--9-----9--------9--7--9--|

D|-------------------------------------9--7--9--9--------------------------------|

A|-------------------------------------------------------------------------------|

E|-------------------------------------------------------------------------------|

 

GUITAR 1:

 

e|--3--3---5--5---2--2--2---3--3---5--5---5--5--5--|

B|--3--3---5--5---3--3--3---3--3---5--5---7--7--7--|

G|--4--4---6--6---4--4--4---4--4---6--6---7--7--7--|

D|--5--5---7--7---4--4--4---5--5---7--7---7--7--7--|

A|--5--5---7--7---2--2--2---5--5---7--7---5--5--5--|

E|--3--3---5--5-------------3--3---5--5------------|

 

GUITAR 2:

 

e|-------------------------------------------------------------------------------------|

B|-------------------------------7--7------------------------------------------7-------|

G|------------7--6--7--6---------------9--7--9------------7--6--7--6-----7--9----------|

D|--9--9--9---------------7--9------------------9--9--9---------------7-------------7--|

A|-------------------------------------------------------------------------------------|

E|-------------------------------------------------------------------------------------|

 

GUITAR 1:

 

e|--3--3--3---0--0--0---2--2--2---2--2--|

B|--3--3--3---2--2--2---2--2--2---3--3--|

G|--4--4--4---2--2--2---2--2--2---4--4--|

D|--5--5--5---2--2--2---4--4--4---4--4--|

A|--5--5--5---0--0--0---4--4--4---2--2--|

E|--3--3--3-------------2--2--2---------|

 

GUITAR 2:

 

e|--------------------------------------------------------------|

B|--7----7--7--8--7----------------------------7--------7-------|

G|-------------------9--7---7--6--7--9---9--9-----9--7----------|

D|-----------------------------------------------------------7--|

A|--------------------------------------------------------------|

E|--------------------------------------------------------------|

 

GUITAR 1:

 

e|--3----3----5--5--|

B|--3----3----5--5--|

G|--4----4----6--6--|

D|--5----5----7--7--|

A|--5----5----7--7--|

E|--3----3----5--5--|

 

GUITAR 2:

 

e|-------------------------------------------|

B|--------------------5----------------------|

G|-----------4--5--7-----7----4--4--5--7--5--|

D|--9--7--9----------------------------------|

A|-------------------------------------------|

E|-------------------------------------------|

 

 

Outro:

 

e|--3--3---5--5---2--2--2---3--3---5--5---5--5--5--|--3--3--3---2---2--2---5---5---3--3---5--5--|

B|--3--3---5--5---3--3--3---3--3---5--5---7--7--7--|--3--3--3---2---3--3---5---5---3--3---7--7--|

G|--4--4---6--6---4--4--4---4--4---6--6---7--7--7--|--4--4--4---2---4--4---6---6---4--4---7--7--|

D|--5--5---7--7---4--4--4---5--5---7--7---7--7--7--|--5--5--5---4---4--4---7---7---5--5---7--7--|

A|--5--5---7--7---2--2--2---5--5---7--7---5--5--5--|--5--5--5---4---2--2---7---7---5--5---5--5--|

E|--3--3---5--5-------------3--3---5--5------------|--3--3--3---2----------5---5---3--3---------|

©2015 by Fefe - Tron544

Sigueme en:

  • YouTube - White Circle
  • Facebook - White Circle
  • Instagram - White Circle
  • Twitter - White Circle
This site was designed with the
.com
website builder. Create your website today.
Start Now