FAITH

THE RISING OF THE SHIELD HERO

TABS ~ By Fefe (Tron544)

 

Intro:

GUITAR (Vocals):

eb|------------------|----------------------------------------------------|
Bb|------------------|----------------------------------------------------|
Gb|---9-----9--------|------9--11--11/13-------------9--11--11/13---------|
Db|------11---9/11---|--11-----------------------11-----------------------|
Ab|------------------|----------------------------------------------------|
Eb|------------------|----------------------------------------------------|

GUITAR (Rhythm):

eb|---------------------------------------------------------------|
Bb|---------------------------------------------------------------|
Gb|--6--6-6-#-4-4-9--9-9-9-4-4-4-4-4--6-6-#-4-4-2--2-2-2-4-4-4-4--|
Db|--6--6-6-#-4-4-9--9-9-9-4-4-4-4-4--6-6-#-4-4-2--2-2-2-4-4-4-4--|
Ab|--4--4-4-#-2-2-7--7-7-7-2-2-2-2-6--4-4-#-2-2-0--0-0-0-2-2-2-2--|
Eb|---------------------------------------------------------------|

GUITAR (Vocals):

eb|----------------------------------------------------------|
Bb|----------------------------------------------------------|
Gb|------9--11--11/13----------------9--11--11/13------------|
Db|--11--------------------------11--------------------------|
Ab|----------------------------------------------------------|
Eb|----------------------------------------------------------|

GUITAR (Rhythm):

eb|---------------------------------------------------------------|
Bb|---------------------------------------------------------------|
Gb|--6--6-6-#-4-4-9--9-9-9-4-4-4-4-4--6-6-#-4-4-2--2-2-2-4-4-4-4--|
Db|--6--6-6-#-4-4-9--9-9-9-4-4-4-4-4--6-6-#-4-4-2--2-2-2-4-4-4-4--|
Ab|--4--4-4-#-2-2-7--7-7-7-2-2-2-2-6--4-4-#-2-2-0--0-0-0-2-2-2-2--|
Eb|---------------------------------------------------------------|

GUITAR (Lead):

   /~~~~~~~~~~~~~( REPEAT x4 / REPITE x4 )~~~~~~~~~~~~\
eb|--t19p17p16p12t19p17p16p12t19p17p16p12h14h16p14p12--|
Bb|----------------------------------------------------|
Gb|----------------------------------------------------|
Db|----------------------------------------------------|
Ab|----------------------------------------------------|
Eb|----------------------------------------------------|

GUITAR (Rhythm):

eb|-------------------------------------------------------------|
Bb|-------------------------------------------------------------|
Gb|--2--2-2--2-2-2-4--4-4--4-4-4----------------------4--4-4-4--|
Db|--2--2-2--2-2-2-4--4-4--4-4-4-4-4-4-6--6-6-6-2-2-2-4--4-4-4--|
Ab|--0--0-0--0-0-0-2--2-2--2-2-2-4-4-4-6--6-6-6-2-2-2-2--2-2-2--|
Eb|------------------------------2-2-2-4--4-4-4-0-0-0-----------|

GUITAR (Lead):

   /~~~~~~~~~~~~~( REPEAT x3 / REPITE x3 )~~~~~~~~~~~~\
eb|--t19p17p16p12t19p17p16p12t19p17p16p12h14h16p14p12--|
Bb|----------------------------------------------------|
Gb|----------------------------------------------------|
Db|----------------------------------------------------|
Ab|----------------------------------------------------|
Eb|----------------------------------------------------|

GUITAR (Rhythm):

eb|-----------------------------------------------------|
Bb|-----------------------------------------------------|
Gb|-----------------------------------------------------|
Db|--4--4-4--4-4-4-6--6-6--6-6-6-4--4-4-2-2-2-2---------|
Ab|--4--4-4--4-4-4-6--6-6--6-6-6-4--4-4-2-2-2-2---------|
Eb|--2--2-2--2-2-2-4--4-4--4-4-4-2--2-2-0-0-0-0---------|

 


Verse/Estrofa:

GUITAR (Vocals):

eb|-----|----------------------------------------------------------------|
Bb|-----|----------------------------------------------------------------|
Gb|--9--|--9h11--9--9-----9--9h11----9-9-9-9h11--9--9-------------9-9-9--|
Db|-----|-------------11------------------------------11--11-------------|
Ab|-----|----------------------------------------------------------------|
Eb|-----|----------------------------------------------------------------|

GUITAR (Rhythm):

eb|-------------------------------------------------------|
Bb|-------------------------------------------------------|
Gb|--6-6-6-6-6-----4-6-9--4---6-6-6-6-6-----2-2-4--4-4-4--|
Db|--6-6-6-6-6-----4-6-9--4---6-6-6-6-6-----2-2-4--4-4-4--|
Ab|--4-4-4-4-4-----2-4-7--2---4-4-4-4-4-----0-0-2--2-2-2--|
Eb|-------------------------------------------------------|

GUITAR (Vocals):

eb|------------------------------------------------------------------------------|
Bb|------------------------------------------------------------------------------|
Gb|--9h11--9--9----------------------------9-11/13--14-13--11--9--11--11-/13-----|
Db|-------------11-11-9h11--9-11-9-11-9-11---------------------------------------|
Ab|------------------------------------------------------------------------------|
Eb|------------------------------------------------------------------------------|

GUITAR (Rhythm):

eb|--------------------------------------------------------|
Bb|--------------------------------------------------------|
Gb|--6-6-6-6-6-----4-6-9--4---2--2-2--2-2-2-4--4-4--4-4-4--|
Db|--6-6-6-6-6-----4-6-9--4---2--2-2--2-2-2-4--4-4--4-4-4--|
Ab|--4-4-4-4-4-----2-4-7--2---0--0-0--0-0-0-2--2-2--2-2-2--|
Eb|--------------------------------------------------------|

 


Pre-Chorus/Pre-Estribillo:

GUITAR (Rhythm):

eb|--------------------------------------|
Bb|--------------------------------------|
Gb|--6--6--------------6--6--------------|
Db|--6--6--------------6--6--------------|
Ab|--4--4--------------4--4--------------|
Eb|--------------------------------------|

GUITAR (Vocals):

eb|-------------------------------------------------------------------------------|
Bb|-------------------------------------------------------12-p9-------------------|
Gb|------------9-9-9-9-9-9-9------------------9-9-9-9-9-9-------11-11/13----------|
Db|---------11---------------9-9-9---------11-------------------------------------|
Ab|-------------------------------------------------------------------------------|
Eb|-------------------------------------------------------------------------------|

GUITAR (Rhythm):

eb|--0-------------------------------------------------------------|
Bb|--0-------------------------------------------------------------|
Gb|--2----------------4--------(4)-x-x-x-x-x-x-x-x-x-x-x-x--4------|
Db|--2----------------4--------(4)-x-x-x-x-x-x-x-x-x-x-x-x--4------|
Ab|--0----------------2--------(2)-x-x-x-x-x-x-x-x-x-x-x-x--2------|
Eb|----------------------------------------------------------------|

FAITH - Tron544
00:00 / 00:00
DONATE%20BUTTON%20(EN)_edited.png

Chorus/Estribillo:

GUITAR (Vocals):

eb|----------------|----------------------------------------------------------------------------------------|
Bb|----------------|-----------------------------------------9--12--12--9-----------------------------------|
Gb|--11/13--11--9--|---------11/13--11--9---------11/13--11----------------11-9-11-11--9/11---11/13--11-----|
Db|----------------|--9--11----------------9--11---------------------------------------------------------9--|
Ab|----------------|----------------------------------------------------------------------------------------|
Eb|----------------|----------------------------------------------------------------------------------------|

GUITAR (Rhythm):

eb|-------------------------------------------------------------|
Bb|-------------------------------------------------------------|
Gb|--2--2-2--2-2-2-4--4-4--4-4-4----------------------4--4-4-4--|
Db|--2--2-2--2-2-2-4--4-4--4-4-4-4-4-4-6--6-6-6-2-2-2-4--4-4-4--|
Ab|--0--0-0--0-0-0-2--2-2--2-2-2-4-4-4-6--6-6-6-2-2-2-2--2-2-2--|
Eb|------------------------------2-2-2-4--4-4-4-0-0-0-----------|

GUITAR (Vocals):

eb|----------------------------------------------------------------------------|
Bb|--------------------------------------9--10--9/10\9-------------------------|
Gb|---------11/13--11--9-----------------------------------------11/13--11--9--|
Db|--9--11----------------9--11---9-11-9----------------------11---------------|
Ab|----------------------------------------------------------------------------|
Eb|----------------------------------------------------------------------------|

GUITAR (Rhythm):

eb|------------------------------------------------------------|
Bb|------------------------------------------------------------|
Gb|------------------------------------------------------------|
Db|--4--4-4--4-4-4-6--6-6--6-6-6-4-4-4-2--2-2-2-6--6-6--6-6-6--|
Ab|--4--4-4--4-4-4-6--6-6--6-6-6-4-4-4-2--2-2-2-6--6-6--6-6-6--|
Eb|--2--2-2--2-2-2-4--4-4--4-4-4-2-2-2-0--0-0-0-4--4-4--4-4-4--|

GUITAR (Lead):

eb|----------------------------------------------------------------------------------------|
Bb|-----------------------------------------9--12--12--9-----------------------------------|
Gb|---------11/13--11--9---------11/13--11----------------11-9-11-11--9/11---11/13--11-----|
Db|--9--11----------------9--11---------------------------------------------------------9--|
Ab|----------------------------------------------------------------------------------------|
Eb|----------------------------------------------------------------------------------------|

GUITAR (Rhythm):

eb|-------------------------------------------------------------|
Bb|-------------------------------------------------------------|
Gb|--2--2-2--2-2-2-4--4-4--4-4-4----------------------4--4-4-4--|
Db|--2--2-2--2-2-2-4--4-4--4-4-4-4-4-4-6--6-6-6-2-2-2-4--4-4-4--|
Ab|--0--0-0--0-0-0-2--2-2--2-2-2-4-4-4-6--6-6-6-2-2-2-2--2-2-2--|
Eb|------------------------------2-2-2-4--4-4-4-0-0-0-----------|

GUITAR (Vocals):

eb|---------------------------------------------------------------------------|
Bb|-----------------------------------------9--10--9/10\9---------------------|
Gb|---------11/13--11--9-------------9-------------------------9-----9--------|
Db|--9--11----------------9--11--11-----11------------------------11---9/11---|
Ab|---------------------------------------------------------------------------|
Eb|---------------------------------------------------------------------------|

GUITAR (Rhythm):

eb|-----------------------------------------------------|
Bb|-----------------------------------------------------|
Gb|-----------------------------------------------------|
Db|--4--4-4--4-4-4-6--6-6--6-6-6-4--4-4-2-2-2-2---------|
Ab|--4--4-4--4-4-4-6--6-6--6-6-6-4--4-4-2-2-2-2---------|
Eb|--2--2-2--2-2-2-4--4-4--4-4-4-2--2-2-0-0-0-0---------|

 


Outro:

GUITAR (Vocals):

eb|----------------------------------------------------------|
Bb|----------------------------------------------------------|
Gb|------9--11--11/13----------------9--11--11/13------------|
Db|--11--------------------------11--------------------------|
Ab|----------------------------------------------------------|
Eb|----------------------------------------------------------|

GUITAR (Rhythm):

eb|---------------------------------------------------------------|
Bb|---------------------------------------------------------------|
Gb|--6--6-6-#-4-4-9--9-9-9-4-4-4-4-4--6-6-#-4-4-2--2-2-2-4-4-4-4--|
Db|--6--6-6-#-4-4-9--9-9-9-4-4-4-4-4--6-6-#-4-4-2--2-2-2-4-4-4-4--|
Ab|--4--4-4-#-2-2-7--7-7-7-2-2-2-2-6--4-4-#-2-2-0--0-0-0-2-2-2-2--|
Eb|---------------------------------------------------------------|

GUITAR (Vocals):

eb|------------------------------------------------------------------|
Bb|------------------------------------------------------------------|
Gb|------9--11--11/13----------------9--11--11/13--------------------|
Db|--11--------------------------11----------------------------------|
Ab|------------------------------------------------------------------|
Eb|------------------------------------------------------------------|

GUITAR (Rhythm):

eb|-----------------------------------------------------------------------|
Bb|-----------------------------------------------------------------------|
Gb|--6--6-6-#-4-4-9--9-9-9-4-4-4-4-4--6-6-#-4-4-2--2-2-2-4-4-4-4-6--------|
Db|--6--6-6-#-4-4-9--9-9-9-4-4-4-4-4--6-6-#-4-4-2--2-2-2-4-4-4-4-6--------|
Ab|--4--4-4-#-2-2-7--7-7-7-2-2-2-2-6--4-4-#-2-2-0--0-0-0-2-2-2-2-4--------|
Eb|-----------------------------------------------------------------------|

©2015 by Fefe - Tron544

Sigueme en:

  • YouTube - White Circle
  • Facebook - White Circle
  • Instagram - White Circle
  • Twitter - White Circle
This site was designed with the
.com
website builder. Create your website today.
Start Now