EVOLUTION

BECK

TABS ~ By Fefe (Tron544)

 

Intro:

 

e|-------------------------------------------|
B|-------------------------------------------|
G|-------------------------------------------|
D|-------------------------------------------|
A|--5-h-7--x--x--x--x--5-h-7--x--x--x--x-----|
E|----------------------------------------0--|

 

e|-------------------------------------------|

B|-------------------------------------------|

G|-------------------------------------------|

D|-------------------------------------------|

A|--5-h-7--x--x--x--x--5-h-7--x--x--x--x-----|

E|----------------------------------------5--|

 

e|-------------------------------------------------------------------------------------|

B|-------------------------------------------------------------------------------------|

G|-------------------------------------------------------------------------------------|

D|----------------------------------------7--------------------------------------------|

A|--5-h-7--x--x--x--x--5-h-7--x--x--x--x------5-h-7--x--x--x--x--5-h-7--x--x--x--x-----|

E|----------------------------------------------------------------------------------0--|

 

e|------------------------------------------------------------------|

B|------------------------------------------------------------------|

G|------------------------------------------------------------------|

D|--2--5--5--5--7--5--2--#--#--#---2--5--5--5--7--5--2--#--#--#--#--|

A|--2--5--5--5--7--5--2--#--#--#---2--5--5--5--7--5--2--#--#--#--#--|

E|--0--3--3--0--5--3--0--#--#--#---0--3--3--0--5--3--0--#--#--#--#--|

 

e|----------------------------------------------------------|

B|----------------------------------------------------------|

G|----------------------------------------------------------|

D|--2--5--5--5--7--5--2--#--#--#---2--5--5--2--5--5--5-/-7--|

A|--2--5--5--5--7--5--2--#--#--#---2--5--5--2--5--5--5-/-7--|

E|--0--3--3--0--5--3--0--#--#--#---0--3--3--0--3--3--3-/-5--|

 

 

First Verse/Primera Estrofa: x2

 

e|-------------------------------------------------------------------------------------|

B|-------------------------------------------------------------------------------------|

G|-------------------------------------------------------------------------------------|

D|----------------------------------------------------------------------------------7--|

A|--5-h-7--x--x--x--x--5-h-7--x--x--x--x------5-h-7--x--x--x--x--5-h-7--x--x--x--x-----|

E|----------------------------------------5--------------------------------------------|

 

e|------------------------------------------------------------------------------------------------|

B|------------------------------------------------------------------------------------------------|

G|------------------------------------------------------------------------------------------------|

D|----------------------------------------5-h-7-p-5-----------------------------------------------|

A|--5-h-7--x--x--x--x--5-h-7--x--x--x--x-------------7---5-h-7--x--x--x--x--5-h-7--x--x--x--x-----|

E|---------------------------------------------------------------------------------------------0--|

 

 

Pre-Chorus/Pre-Estribillo:

 

e|------------------------------------------------------------------|

B|------------------------------------------------------------------|

G|------------------------------------------------------------------|

D|--2--3--4---#--#--#--#--#--#---2--3--4----------------------------|

A|--2--3--4---#--#--#--#--#--#---2--3--4----------------------------|

E|--0--1--2---#--#--#--#--#--#---0--1--2---5-h-7-p-5--8-p-5--7-p-5--|

 

e|-------------------------------------------------|

B|-------------------------------------------------|

G|-------------------------------------------------|

D|--2--3--4---#--#--#--#--#--#---2--3--4---4-b--2--|

A|--2--3--4---#--#--#--#--#--#---2--3--4-----------|

E|--0--1--2---#--#--#--#--#--#---0--1--2-----------|

 

e|--------------------------------------------------------------------------------------------------------|

B|--------------------------------------------------------------------------------------------------------|

G|--------------------------------------------------------------------------------------------------------|

D|--2--3--4---#--#--#--#--#--#---2--3--4----------------------------2--3--4---#--#--#--#--#--#---2--3--4--|

A|--2--3--4---#--#--#--#--#--#---2--3--4----------------------------2--3--4---#--#--#--#--#--#---2--3--4--|

E|--0--1--2---#--#--#--#--#--#---0--1--2---5-h-7-p-5--8-p-5--7-p-5--0--1--2---#--#--#--#--#--#---0--1--2--|

 

 

First Chorus/Primer Estribillo: x2

 

e|------------------------------------------------------------------|

B|------------------------------------------------------------------|

G|------------------------------------------------------------------|

D|--2--5--5--5--7--5--2--#--#--#---2--5--5--5--7--5--2--#--#--#--#--|

A|--2--5--5--5--7--5--2--#--#--#---2--5--5--5--7--5--2--#--#--#--#--|

E|--0--3--3--0--5--3--0--#--#--#---0--3--3--0--5--3--0--#--#--#--#--|

 

e|----------------------------------------------------------|

B|----------------------------------------------------------|

G|----------------------------------------------------------|

D|--2--5--5--5--7--5--2--#--#--#---2--5--5--2--5--5--5-/-7--|

A|--2--5--5--5--7--5--2--#--#--#---2--5--5--2--5--5--5-/-7--|

E|--0--3--3--0--5--3--0--#--#--#---0--3--3--0--3--3--3-/-5--|

Evolution - Tron544
00:00 / 00:00
DONATE%20BUTTON%20(EN)_edited.png

Solo:

 

e|----------------------------------------------------------------------------------------------------------|

B|--15-b--------------------------------------15------------------------------------------------------------|

G|---------14-b---12--------------------14-b------14--12--14--12---0--9--0--7--0--5--0--4--0--2-b-r-p-0-----|

D|--------------------14--12-----------------------------------------------------------------------------2--|

A|----------------------------14--10-b----------------------------------------------------------------------|

E|----------------------------------------------------------------------------------------------------------|

 

  /~~~~~~~~~~~~~~~~~~~~~( REPEAT x3 / REPITE x3 )~~~~~~~~~~~~~~~~~~~~\

e|--------------------------------------------------------------------|--17-b--15-b--------|

B|--12--12--12--12--12--12--12--12---15--15--15--15---17--17--17--17--|--------------15-b--|

G|--------------------------------------------------------------------|--------------------|

D|--------------------------------------------------------------------|--------------------|

A|--------------------------------------------------------------------|--------------------|

E|--------------------------------------------------------------------|--------------------|

 

Second Verse/Segunda Estrofa:

 

e|-------------------------------------------------------------------------------------|

B|-------------------------------------------------------------------------------------|

G|-------------------------------------------------------------------------------------|

D|----------------------------------------------------------------------------------7--|

A|--5-h-7--x--x--x--x--5-h-7--x--x--x--x------5-h-7--x--x--x--x--5-h-7--x--x--x--x-----|

E|----------------------------------------5--------------------------------------------|

 

e|------------------------------------------------------------------------------------------------|

B|------------------------------------------------------------------------------------------------|

G|------------------------------------------------------------------------------------------------|

D|----------------------------------------5-h-7-p-5-----------------------------------------------|

A|--5-h-7--x--x--x--x--5-h-7--x--x--x--x-------------7---5-h-7--x--x--x--x--5-h-7--x--x--x--x-----|

E|---------------------------------------------------------------------------------------------0--|

 

 

Pre-Chorus/Pre-Estribillo:

 

e|------------------------------------------------------------------|

B|------------------------------------------------------------------|

G|------------------------------------------------------------------|

D|--2--3--4---#--#--#--#--#--#---2--3--4----------------------------|

A|--2--3--4---#--#--#--#--#--#---2--3--4----------------------------|

E|--0--1--2---#--#--#--#--#--#---0--1--2---5-h-7-p-5--8-p-5--7-p-5--|

 

e|-------------------------------------------------|

B|-------------------------------------------------|

G|-------------------------------------------------|

D|--2--3--4---#--#--#--#--#--#---2--3--4---4-b--2--|

A|--2--3--4---#--#--#--#--#--#---2--3--4-----------|

E|--0--1--2---#--#--#--#--#--#---0--1--2-----------|

 

e|--------------------------------------------------------------------------------------------------------|

B|--------------------------------------------------------------------------------------------------------|

G|--------------------------------------------------------------------------------------------------------|

D|--2--3--4---#--#--#--#--#--#---2--3--4----------------------------2--3--4---#--#--#--#--#--#---2--3--4--|

A|--2--3--4---#--#--#--#--#--#---2--3--4----------------------------2--3--4---#--#--#--#--#--#---2--3--4--|

E|--0--1--2---#--#--#--#--#--#---0--1--2---5-h-7-p-5--8-p-5--7-p-5--0--1--2---#--#--#--#--#--#---0--1--2--|

 

 

Second Chorus/Segundo Estribillo: x2

 

e|------------------------------------------------------------------|

B|------------------------------------------------------------------|

G|------------------------------------------------------------------|

D|--2--5--5--5--7--5--2--#--#--#---2--5--5--5--7--5--2--#--#--#--#--|

A|--2--5--5--5--7--5--2--#--#--#---2--5--5--5--7--5--2--#--#--#--#--|

E|--0--3--3--0--5--3--0--#--#--#---0--3--3--0--5--3--0--#--#--#--#--|

 

e|----------------------------------------------------------|

B|----------------------------------------------------------|

G|----------------------------------------------------------|

D|--2--5--5--5--7--5--2--#--#--#---2--5--5--2--5--5--5-/-7--|

A|--2--5--5--5--7--5--2--#--#--#---2--5--5--2--5--5--5-/-7--|

E|--0--3--3--0--5--3--0--#--#--#---0--3--3--0--3--3--3-/-5--|

 

 

Outro: x2

 

e|-------------------------------------------------------------------------------------|

B|-------------------------------------------------------------------------------------|

G|-------------------------------------------------------------------------------------|

D|-------------------------------------------------------------------------------------|

A|--5-h-7--x--x--x--x--5-h-7--x--x--x--x------5-h-7--x--x--x--x--5-h-7--x--x--x--x-----|

E|----------------------------------------0-----------------------------------------0--|

©2015 by Fefe - Tron544

Sigueme en:

  • YouTube - White Circle
  • Facebook - White Circle
  • Instagram - White Circle
  • Twitter - White Circle
This site was designed with the
.com
website builder. Create your website today.
Start Now