DRAWING DAYS

KATEKYO HITMAN REBORN!

TABS ~ By Fefe (Tron544)

 

Intro:

 

GUITAR 1:

 

e|--0--|--0--|

B|--0--|--0--|

G|--2--|--1--|

D|--2--|--2--|

A|--0--|--2--|

E|-----|--0--|

 

GUITAR 2:

 

e|--------------------------|----------------------11------|

B|----------------------12--|--------------------------12--|

G|--------------------------|--11--13------11--13----------|

D|--13--14------13--14------|------------------------------|

A|--------------------------|------------------------------|

E|--------------------------|------------------------------|

 

 

Verse/Estrofa:

 

GUITAR 1:

 

e|--0--|--0--|

B|--0--|--0--|

G|--2--|--1--|

D|--2--|--2--|

A|--0--|--2--|

E|-----|--0--|

 

GUITAR 2:

 

e|---------------------------------------------|--------------|

B|---------------------------------------------|--------------|

G|-------------------------------11--9------9--|--13----9--9--|

D|--11--13---9--9----11--13---9---------13-----|--------------|

A|---------------------------------------------|--------------|

E|---------------------------------------------|--------------|

 

GUITAR 3:

 

e|-----------|--11------|

B|-----------|------12--|

G|-----------|----------|

D|--13-h-14--|----------|

A|-----------|----------|

E|-----------|----------|

 

GUITAR 1:

 

e|--0--|--0--|

B|--0--|--0--|

G|--2--|--1--|

D|--2--|--2--|

A|--0--|--2--|

E|-----|--0--|

 

GUITAR 2:

 

e|---------------------------------------------|--------------|

B|---------------------------------------------|--------------|

G|-------------------------------11--9------9--|--13----9--9--|

D|--11--13---9--9----11--13---9---------13-----|--------------|

A|---------------------------------------------|--------------|

E|---------------------------------------------|--------------|

 

GUITAR 3:

 

e|-----------|--11------------------------|

B|-----------|------12--------------------|

G|-----------|------------13--11----9--8--|

D|--13-h-14--|----------------------------|

A|-----------|----------------------7--6--|

E|-----------|----------------------------|

 

 

Pre-Chorus/Pre-Estribillo:

 

GUITAR 1:

 

e|--4------2------0------0--|

B|--5------4------2------0--|

G|--6------4------2------1--|

D|--6------4------2------2--|

A|--4------2------0------2--|

E|-----------------------0--|

 

GUITAR 2:

 

e|------------------------------------------|

B|------------------------------------------|

G|--9--8--9------9--8--9--------------------|

D|-----------9------------9--7--6--7--9--6--|

A|------------------------------------------|

E|------------------------------------------|

 

GUITAR 3:

 

e|----------------------------------0------0--|

B|---------12--------------12-------2------0--|

G|-----11------11------11------11---2------1--|

D|--9---------------9---------------2------2--|

A|----------------------------------0------2--|

E|-----------------------------------------0--|

 

GUITAR 1:

 

e|--4------2----7----(4)-x--x--x---x--x--x--x-----------------|

B|--5------4----9----(4)-x--x--x---x--x--x--x-----------------|

G|--6------4----9----(4)-x--x--x---x--x--x--x---6--6---8---9--|

D|--6------4----9----(6)-x--x--x---x--x--x--x-----------------|

A|--4------2----7----(6)-x--x--x---x--x--x--x---4--4---6---7--|

E|-------------------(4)-x--x--x---x--x--x--x-----------------|

 

GUITAR 2:

 

e|-------------------------------------------|

B|-------------------------------------------|

G|--9--8--9------9--8--9------9--8--9--9--9--|

D|-----------9------------9------------------|

A|-------------------------------------------|

E|-------------------------------------------|

 

GUITAR 3:

 

e|----------------------------------(4)-x--x--x---x--x--x--x-----------------|

B|---------12--------------12-------(4)-x--x--x---x--x--x--x-----------------|

G|-----11------11------11------11---(4)-x--x--x---x--x--x--x---6--6---8---9--|

D|--9---------------9---------------(6)-x--x--x---x--x--x--x-----------------|

A|----------------------------------(6)-x--x--x---x--x--x--x---4--4---6---7--|

E|----------------------------------(4)-x--x--x---x--x--x--x-----------------|

Drawing Days - Tron544
00:00 / 00:00
DONATE%20BUTTON%20(EN)_edited.png

Chorus/Estribillo:

 

GUITAR 1:

 

e|--0--|--4----4----2--|

B|--0--|--4----5----4--|

G|--2--|--4----6----4--|

D|--2--|--6----6----4--|

A|--0--|--6----4----2--|

E|-----|--4------------|

 

GUITAR 2:

 

e|--------------------------------------------------------|-----------------------------------------|

B|--------------------------------------------------------|-----------------------------------------|

G|--13--11--11--9--9------9--11--9------9-----------------|-----------------------------9--------9--|

D|--------------------13------------13-----9--9----13--9--|--9--------9------9--13--13-------11-----|

A|--------------------------------------------------------|-------11-----11-------------------------|

E|--------------------------------------------------------|-----------------------------------------|

 

GUITAR 3:

 

e|--------------------------------------------|--------------------------------------------|

B|--7----9----10----12----7----9----10----12--|--7----9----12----16----7----9----16----12--|

G|--------------------------------------------|--------------------------------------------|

D|--4----6----7-----9-----4----6----7-----9---|--4----6----9-----13----4----6----13----9---|

A|--------------------------------------------|--------------------------------------------|

E|--------------------------------------------|--------------------------------------------|

 

GUITAR 1:

 

e|--0--|--4----4----2--|

B|--0--|--4----5----4--|

G|--2--|--4----6----4--|

D|--2--|--6----6----4--|

A|--0--|--6----4----2--|

E|-----|--4------------|

 

GUITAR 2:

 

e|--------------------------------------------------------|------------------------------------|

B|--------------------------------------------------------|------------------------------------|

G|--13--11--11--9--9------9--11--9------9-----------------|-------------------------11--11--9--|

D|--------------------13------------13-----9--9----13--9--|--9--------9------9--13-------------|

A|--------------------------------------------------------|-------11-----11--------------------|

E|--------------------------------------------------------|------------------------------------|

 

GUITAR 3:

 

e|--------------------------------------------|--------------------------------------------|

B|--7----9----10----12----7----9----10----12--|--7----9----12----16----7----9----16----12--|

G|--------------------------------------------|--------------------------------------------|

D|--4----6----7-----9-----4----6----7-----9---|--4----6----9-----13----4----6----13----9---|

A|--------------------------------------------|--------------------------------------------|

E|--------------------------------------------|--------------------------------------------|

 

GUITAR 1:

 

e|--0--|--4----4----2--|

B|--0--|--4----5----4--|

G|--2--|--4----6----4--|

D|--2--|--6----6----4--|

A|--0--|--6----4----2--|

E|-----|--4------------|

 

GUITAR 2:

 

e|---------------------------------------------|--------------|

B|---------------------------------------------|--------------|

G|-------------------------------11--9------9--|--13----9--9--|

D|--11--13---9--9----11--13---9---------13-----|--------------|

A|---------------------------------------------|--------------|

E|---------------------------------------------|--------------|

 

GUITAR 3:

 

e|--------------------------------------------|--------------------------------------------|

B|--7----9----10----12----7----9----10----12--|--7----9----12----16----7----9----16----12--|

G|--------------------------------------------|--------------------------------------------|

D|--4----6----7-----9-----4----6----7-----9---|--4----6----9-----13----4----6----13----9---|

A|--------------------------------------------|--------------------------------------------|

E|--------------------------------------------|--------------------------------------------|

 

GUITAR 1:

 

e|--0--|--4----4----2--|

B|--0--|--4----5----4--|

G|--2--|--4----6----4--|

D|--2--|--6----6----4--|

A|--0--|--6----4----2--|

E|-----|--4------------|

 

GUITAR 2:

 

e|-------------------------------------------------|-----------------------------------|

B|-------------------------------------------------|-----------------------------------|

G|-----------------------------------11--9------9--|--13----14--13---11--9--11--9--13--|

D|--11--13---9--11--9----11--13---9---------13-----|-----------------------------------|

A|-------------------------------------------------|-----------------------------------|

E|-------------------------------------------------|-----------------------------------|

 

GUITAR 3:

 

e|--------------------------------------------|--------------------------------------------|

B|--7----9----10----12----7----9----10----12--|--7----9----12----16----7----9----12----10--|

G|--------------------------------------------|--------------------------------------------|

D|--4----6----7-----9-----4----6----7-----9---|--4----6----9-----13----4----6----9-----7---|

A|--------------------------------------------|--------------------------------------------|

E|--------------------------------------------|--------------------------------------------|

©2015 by Fefe - Tron544

Sigueme en:

  • YouTube - White Circle
  • Facebook - White Circle
  • Instagram - White Circle
  • Twitter - White Circle
This site was designed with the
.com
website builder. Create your website today.
Start Now