DRAGON SOUL

DRAGON BALL Z KAI

TABS ~ By Fefe (Tron544)

 

Intro:

 

e|--------------------------------------|
B|--------------------------------------|
G|--x--x--5--x--x--5--x--x--3--3--2-----|
D|--x--x--5--x--x--5--x--x--3--3--2--3--|
A|--x--x--3--x--x--3--x--x--1--1--0--3--|
E|-----------------------------------1--|

 

e|--------------------------------------|
B|--------------------------------------|
G|--x--x--5--x--x--5--x--x--3--3--2--3--|
D|--x--x--5--x--x--5--x--x--3--3--2--3--|
A|--x--x--3--x--x--3--x--x--1--1--0--1--|
E|--------------------------------------|

e|-----------------------|-----------------|

B|-----------------------|-----------------|

G|--5-----7--5-----7--5--|-----------------|

D|-----5--------5--------|--6--6--6--8--8--|

A|-----------------------|--6--6--6--8--8--|

E|-----------------------|--4--4--4--6--6--|

 


First Chorus/Primer Estribillo:

 

e|-----------------------------|-----------------------------|
B|--8--10--8--10--8------------|-----------------------------|
G|-------------------10--9--7--|--9--10--9--10--9--7---------|
D|-----------------------------|----------------------10--9--|
A|-----------------------------|-----------------------------|
E|-----------------------------|-----------------------------|

 

e|-----------------------|---------------------------------------|----------------------|
B|----------------8------|----------------------8--8--10---------|--11--11--11--10------|
G|---------10--9---------|--7--9--10--7--9--10-------------------|------------------10--|
D|--7--10------------10--|--------------------------------9--10--|----------------------|
A|-----------------------|---------------------------------------|----------------------|
E|-----------------------|---------------------------------------|----------------------|

 


Verse/Estrofa:

 

e|----------------------------------------|--------------|----------------------------------------|
B|----------------------5--6--6--5--------|--6--5--------|----------------------5--6--6--5--------|
G|--5-----7--5----5--7--------------7--5--|--------7--5--|--5-----7--5----5--7--------------7--7--|
D|-----5----------------------------------|--------------|-----5----------------------------------|
A|----------------------------------------|--------------|----------------------------------------|
E|----------------------------------------|--------------|----------------------------------------|

 

e|----------------------------------------|--------------|-------------------------------------------------|
B|----------------------5--6--6--5--------|--6--5--------|----------------------5--6--6--5-----------------|
G|--5-----7--5----5--7--------------7--5--|--------7--5--|--5-----7--5----5--7-----------------5--5--7--7--|
D|-----5----------------------------------|--------------|-----5----------------------------7--------------|
A|----------------------------------------|--------------|-------------------------------------------------|
E|----------------------------------------|--------------|-------------------------------------------------|

Dragon Soul - Tron544
00:00 / 00:00
DONATE%20BUTTON%20(EN)_edited.png

Pre-Chorus/Pre-Estribillo:

 

e|--------------------------|--------------------------|
B|--------------5-----------|--------------8--6--5-----|
G|-----4--5--------7--5--7--|--------4--------------7--|
D|--7--------7--------------|--5--7-----5--------------|
A|--------------------------|--------------------------|
E|--------------------------|--------------------------|

 

e|--------------------------|--------------------------------|--------------|
B|--------------5-----------|--5--------------------------8--|--------6--8--|
G|-----4--5--------7--5--7--|-----7--7--5--5-----4--5--------|--7--9--------|
D|--7--------7--------------|-----------------7--------7-----|--------------|
A|--------------------------|--------------------------------|--------------|
E|--------------------------|--------------------------------|--------------|

 


Second Chorus/Segundo Estribillo:

 

e|-----------------------------|-----------------------------|
B|--8--10--8--10--8------------|-----------------------------|
G|-------------------10--9--7--|--9--10--9--10--9--7---------|
D|-----------------------------|----------------------10--9--|
A|-----------------------------|-----------------------------|
E|-----------------------------|-----------------------------|

 

e|-----------------------|-----------------------------|
B|----------------8------|----------------------10--8--|
G|---------10--9---------|--7--9--10--7--9--10---------|
D|--7--10------------10--|-----------------------------|
A|-----------------------|-----------------------------|
E|-----------------------|-----------------------------|

 

e|-----------------------------|-----------------------------|
B|--8--10--8--10--8------------|-----------------------------|
G|-------------------10--9--7--|--9--10--9--10--9--7---------|
D|-----------------------------|----------------------10--9--|
A|-----------------------------|-----------------------------|
E|-----------------------------|-----------------------------|

 

e|-----------------------|---------------------------------------|--------------------|
B|----------------8------|----------------------8--8--10---------|--8--8--------------|
G|---------10--9---------|--7--9--10--7--9--10-------------------|--------10--10--12--|
D|--7--10------------10--|--------------------------------9--10--|--------------------|
A|-----------------------|---------------------------------------|--------------------|
E|-----------------------|---------------------------------------|--------------------|

©2015 by Fefe - Tron544

Sigueme en:

  • YouTube - White Circle
  • Facebook - White Circle
  • Instagram - White Circle
  • Twitter - White Circle
This site was designed with the
.com
website builder. Create your website today.
Start Now