DRAGON SCREAMER

CAPTAIN TSUBASA: ROAD TO 2002

TABS ~ By Fefe (Tron544)

 

Intro:

 

GUITAR 1:

 

e|------------------------------------|

B|------------------------------------|

G|--7------7------7----9----10----14--|

D|------------------------------------|

A|--5------5------5----7----8-----12--|

E|------------------------------------|

 

GUITAR 2:

 

e|--22--20--17----17-h-20--17--------------17--|

B|-------------------------------17---18-------|

G|---------------------------------------------|

D|---------------------------------------------|

A|---------------------------------------------|

E|---------------------------------------------|

 

GUITAR 1:

 

e|-------------------------------------------------------------------------------------|

B|-------------------------------------------------------------------------------------|

G|--5--7-----5---7---5-h-7------7-----5---7---5--7-----5---7---5-h-7------7-----5---7--|

D|--------7------------------7-----7----------------7------------------7-----7---------|

A|-------------------------------------------------------------------------------------|

E|-------------------------------------------------------------------------------------|

 

 

Verse/Estrofa:

 

GUITAR 1:

 

e|-------------------------------------------------------------------------------------|

B|-------------------------------------------------------------------------------------|

G|--5--7-----5---7---5-h-7------7-----5---7---5--7-----5---7---5-h-7------7-----5---7--|

D|--------7------------------7-----7----------------7------------------7-----7---------|

A|-------------------------------------------------------------------------------------|

E|-------------------------------------------------------------------------------------|

 

GUITAR 2:

 

e|---------------------------------------------------------------------------------------|

B|---------------------------------------------------------------------------------------|

G|--7--7--9--10--9--7--9--10--9--7--9--10------7--7--9--10--9--7--9--10--9--7--9--10--7--|

D|-----------------------------------------7---------------------------------------------|

A|---------------------------------------------------------------------------------------|

E|---------------------------------------------------------------------------------------|

 

GUITAR 1:

 

e|-------------------------------------------------------------------------------------|

B|-------------------------------------------------------------------------------------|

G|--5--7-----5---7---5-h-7------7-----5---7---5--7-----5---7---5-h-7------7-----5---7--|

D|--------7------------------7-----7----------------7------------------7-----7---------|

A|-------------------------------------------------------------------------------------|

E|-------------------------------------------------------------------------------------|

 

GUITAR 2:

 

e|---------------------------------------------------------------------------------------|

B|---------------------------------------------------------------------------------------|

G|--7--7--9--10--9--7--9--10--9--7--9--10------7--7--9--10--9--7--9--10--9--7--9--10--7--|

D|-----------------------------------------7---------------------------------------------|

A|---------------------------------------------------------------------------------------|

E|---------------------------------------------------------------------------------------|

 

 

Pre-Chorus/Pre-Estribillo:

 

GUITAR 1:

 

e|---------------------------------------------------------------------------------------|

B|---------------------------------------------------------------------------------------|

G|------------------2-/-5--5--5--5-/-7--7--7-------------------2-/-5--5--5--5-/-7--7--7--|

D|--8--8--7--7--5------------------------------8--8--7--7--5-----------------------------|

A|---------------------------------------------------------------------------------------|

E|---------------------------------------------------------------------------------------|

 

GUITAR 2:

 

e|--------------|-------------------------------------------------------------------------------------------|

B|--------------|-------------------------8---------------------8--10--11--10--8--10--8---------------------|

G|--7--9--10--7-|--10------------------------10---7--10--7--10---------------------------10--7----7--10--7--|

D|--------------|--------7--10--7--10--7--------------------------------------------------------------------|

A|--------------|-------------------------------------------------------------------------------------------|

E|--------------|-------------------------------------------------------------------------------------------|

 

GUITAR 1:

 

e|---------------------------------------------------------------------------------------|

B|---------------------------------------------------------------------------------------|

G|------------------2-/-5--5--5--5-/-7--7--7-------------------2-/-5--5--5--5-/-7--7--7--|

D|--8--8--7--7--5------------------------------8--8--7--7--5-----------------------------|

A|---------------------------------------------------------------------------------------|

E|---------------------------------------------------------------------------------------|

 

GUITAR 2:

 

e|----------------------------------------------------------------------|

B|------------------------------------------------8--10--8------8-/-10--|

G|--10-------------------7--10---7--7--10--7--10------------10----------|

D|--------7--10--7--10--------------------------------------------------|

A|----------------------------------------------------------------------|

E|----------------------------------------------------------------------|

Dragon Screamer - Tron544
00:00 / 00:00
DONATE%20BUTTON%20(EN)_edited.png

Chorus/Estribillo:

 

GUITAR 1:

 

e|-------------------------------------------------------------------------------------|

B|-------------------------------------------------------------------------------------|

G|--5--7-----5---7---5-h-7------7-----5---7---5--7-----5---7---5-h-7------7-----5---7--|

D|--------7------------------7-----7----------------7------------------7-----7---------|

A|-------------------------------------------------------------------------------------|

E|-------------------------------------------------------------------------------------|

 

GUITAR 2:

 

e|---------------------------------------------------------|

B|--10------------8-/-10-------------10---------8-/-10--8--|

G|-------7---10-------------7--7--7------7--10-------------|

D|---------------------------------------------------------|

A|---------------------------------------------------------|

E|---------------------------------------------------------|

 

GUITAR 1:

 

e|-------------------------------------------------------------------------------------|

B|-------------------------------------------------------------------------------------|

G|--5--7-----5---7---5-h-7------7-----5---7---5--7-----5---7---5-h-7------7-----5---7--|

D|--------7------------------7-----7----------------7------------------7-----7---------|

A|-------------------------------------------------------------------------------------|

E|-------------------------------------------------------------------------------------|

 

GUITAR 2:

 

e|--------------------------------------------------------------------------------|

B|------------------------------------------8--10---------------------------------|

G|--10--10--10--10--9--10---10--10--10--10-----------------7--7---------10--9--7--|

D|--------------------------------------------------7--10--------7---7------------|

A|--------------------------------------------------------------------------------|

E|--------------------------------------------------------------------------------|

 

GUITAR 1:

 

e|-------------------------------------------------------------------------------------|

B|-------------------------------------------------------------------------------------|

G|--5--7-----5---7---5-h-7------7-----5---7---5--7-----5---7---5-h-7------7-----5---7--|

D|--------7------------------7-----7----------------7------------------7-----7---------|

A|-------------------------------------------------------------------------------------|

E|-------------------------------------------------------------------------------------|

 

GUITAR 2:

 

e|-----------------------------------------------------|

B|--10--8-----------10--8------8-/-10----8--8--8-/-10--|

G|---------10--7-----------10--------------------------|

D|-----------------------------------------------------|

A|-----------------------------------------------------|

E|-----------------------------------------------------|

 

GUITAR 1:

 

e|-------------------------------------------------------------------------------------|

B|-------------------------------------------------------------------------------------|

G|--5--7-----5---7---5-h-7------7-----5---7---5--7-----5---7---5-h-7------7-----5---7--|

D|--------7------------------7-----7----------------7------------------7-----7---------|

A|-------------------------------------------------------------------------------------|

E|-------------------------------------------------------------------------------------|

 

GUITAR 2:

 

e|-----------------------------------------------------|

B|--10--8-----------10--8------8-/-10----8--8--8-/-10--|

G|---------10--7-----------10--------------------------|

D|-----------------------------------------------------|

A|-----------------------------------------------------|

E|-----------------------------------------------------|

 

 

Outro:

 

e|-------------------------------------|

B|-------------------------------------|

G|--10--10--10---9--9--9---8--8--8--8--|

D|-------------------------------------|

A|--8---8---8----7--7--7---6--6--6--6--|

E|-------------------------------------|

©2015 by Fefe - Tron544

Sigueme en:

  • YouTube - White Circle
  • Facebook - White Circle
  • Instagram - White Circle
  • Twitter - White Circle
This site was designed with the
.com
website builder. Create your website today.
Start Now