DON'T SAY LAZY!

K-ON!

TABS ~ By Fefe (Tron544)

 

Chorus/Estribillo:

 

GUITAR 1:

 

e|----------------------------------|

B|----------------------------------|

G|--5------7------4------9---7---5--|

D|--5------7------4------9---7---5--|

A|--3------5------2------7---5---3--|

E|----------------------------------|

 

GUITAR 2:

 

e|------------------------------|------------------------------|

B|--12--10------10------10--12--|--12--10------10--------------|

G|----------12------12----------|----------12------12--9--12---|

D|------------------------------|------------------------------|

A|------------------------------|------------------------------|

E|------------------------------|------------------------------|

 

GUITAR 1:

 

e|-----|--------------------------------------------|

B|-----|--------------------------------------------|

G|--7--|--9--9--x--x--x--x--9--9--9--9--x--x--9--9--|

D|--7--|--9--9--x--x--x--x--9--9--9--9--x--x--9--9--|

A|--5--|--7--7--x--x--x--x--7--7--7--7--x--x--7--7--|

E|-----|--------------------------------------------|

 

GUITAR 2:

 

e|--------------------------|--------------------------------------------|

B|--12--10------10------12--|--------------------------------------8--8--|

G|----------12------12------|--7--9--9--9--9--9--7--9--9--9--9--9--------|

D|--------------------------|--------------------------------------------|

A|--------------------------|--------------------------------------------|

E|--------------------------|--------------------------------------------|

 

GUITAR 1:

 

e|----------------------------------|

B|----------------------------------|

G|--5------7------4------9---7---2--|

D|--5------7------4------9---7---2--|

A|--3------5------2------7---5---0--|

E|----------------------------------|

 

GUITAR 2:

 

e|------------------------------|------------------------------|

B|--12--10------10------10--12--|--12--10------10--------------|

G|----------12------12----------|----------12------12--9--12---|

D|------------------------------|------------------------------|

A|------------------------------|------------------------------|

E|------------------------------|------------------------------|

 

GUITAR 1:

 

e|-----|--------------------------------------------|

B|-----|--------------------------------------------|

G|--4--|--9--9--x--x--x--x--9--9--9--9--x--x--9--9--|

D|--4--|--9--9--x--x--x--x--9--9--9--9--x--x--9--9--|

A|--2--|--7--7--x--x--x--x--7--7--7--7--x--x--7--7--|

E|-----|--------------------------------------------|

 

GUITAR 2:

 

e|--------------------------|--------------------------------------------|

B|--12--10------10------12--|--------------------------------------8--8--|

G|----------12------12------|--7--9--9--9--9--9--7--9--9--9--9--9--------|

D|--------------------------|--------------------------------------------|

A|--------------------------|--------------------------------------------|

E|--------------------------|--------------------------------------------|

 

GUITAR 1:

 

e|---------------------------------------------|---------------------------------------------|

B|---------------------------------------------|---------------------------------------------|

G|--9--9--x--x--9--9--x--x--9--9--x--x--9--10--|--9--9--x--x--9--9--x--x--9--9--x--x--9--10--|

D|--9--9--x--x--9--9--x--x--9--9--x--x--9--10--|--9--9--x--x--9--9--x--x--9--9--x--x--9--10--|

A|--7--7--x--x--7--7--x--x--7--7--x--x--7--8---|--7--7--x--x--7--7--x--x--7--7--x--x--7--8---|

E|---------------------------------------------|---------------------------------------------|

 

 

Verse/Estrofa:

 

GUITAR 1:

 

e|--------------------------------------------|--------------------------------------------|

B|--------------------------------------------|--------------------------------------------|

G|--9--9--x--x--x--x--9--9--9--9--x--x--9--9--|--9--9--x--x--x--x--9--9--9--9--x--x--9--9--|

D|--9--9--x--x--x--x--9--9--9--9--x--x--9--9--|--9--9--x--x--x--x--9--9--9--9--x--x--9--9--|

A|--7--7--x--x--x--x--7--7--7--7--x--x--7--7--|--7--7--x--x--x--x--7--7--7--7--x--x--7--7--|

E|--------------------------------------------|--------------------------------------------|

 

GUITAR 2:

 

e|------------------------------------------|------------------------------------------|

B|------------------------------------8--8--|------------------------------------8--8--|

G|--7--9--9--9------7--9--9--9--9--9--------|--7--9--9--9------7--9--9--9--9--9--------|

D|------------------------------------------|------------------------------------------|

A|------------------------------------------|------------------------------------------|

E|------------------------------------------|------------------------------------------|

 

GUITAR 1:

 

e|---------------------------------------------|---------------------------------------------|

B|---------------------------------------------|---------------------------------------------|

G|--9--9--x--x--9--9--x--x--9--9--x--x--9--10--|--9--9--x--x--9--9--x--x--9--9--x--x--9--10--|

D|--9--9--x--x--9--9--x--x--9--9--x--x--9--10--|--9--9--x--x--9--9--x--x--9--9--x--x--9--10--|

A|--7--7--x--x--7--7--x--x--7--7--x--x--7--8---|--7--7--x--x--7--7--x--x--7--7--x--x--7--8---|

E|---------------------------------------------|---------------------------------------------|

Don't Say Lazy! - Tron544
00:00 / 00:00
DONATE%20BUTTON%20(EN)_edited.png

Pre-Chorus/Pre-Estribillo:

 

GUITAR 1:

 

e|-------------------------------------------|

B|-------------------------------------------|

G|--9-----7--9-------------------------------|

D|--9-----------9-----7--9---------7------9--|

A|--7-----------------------7----------------|

E|-------------------------------------------|

 

GUITAR 2:

 

e|---------------------7--|------------------------|-----------------------------------------|

B|-----8-----------10-----|-----8-----------10-----|-----8-----8-------10--8--7--8--7--------|

G|--9-----9--7--9---------|--9-----9--7--9------9--|--9-----9-------9------------------9--9--|

D|------------------------|------------------------|-----------------------------------------|

A|------------------------|------------------------|-----------------------------------------|

E|------------------------|------------------------|-----------------------------------------|

 

GUITAR 1:

 

e|--12-----------12--------------------------------------|

B|--15b------15------12------10--12----------------------|

G|-----------------------------------12------15------16--|

D|-------------------------------------------------------|

A|-------------------------------------------------------|

E|-------------------------------------------------------|

 

GUITAR 2:

 

e|---------------------------7-|-----------------------|---------------------------------------7--7---------|

B|-----------8-----------10----|-----8-----------10----|-----8-----8------8-----7--8--7-----7--------10--10-|

G|--7--7--9-----9--7--9--------|--9-----9--7--9------9-|--9-----9------9-----9-----------9------------------|

D|-----------------------------|-----------------------|----------------------------------------------------|

A|-----------------------------|-----------------------|----------------------------------------------------|

E|-----------------------------|-----------------------|----------------------------------------------------|

 

 

Chorus/Estribillo:

 

GUITAR 1:

 

e|----------------------------------|

B|----------------------------------|

G|--5------7------4------9---7---5--|

D|--5------7------4------9---7---5--|

A|--3------5------2------7---5---3--|

E|----------------------------------|

 

GUITAR 2:

 

e|------------------------------|------------------------------|

B|--12--10------10------10--12--|--12--10------10--------------|

G|----------12------12----------|----------12------12--9--12---|

D|------------------------------|------------------------------|

A|------------------------------|------------------------------|

E|------------------------------|------------------------------|

 

GUITAR 1:

 

e|-----|--------------------------------------------|

B|-----|--------------------------------------------|

G|--7--|--9--9--x--x--x--x--9--9--9--9--x--x--9--9--|

D|--7--|--9--9--x--x--x--x--9--9--9--9--x--x--9--9--|

A|--5--|--7--7--x--x--x--x--7--7--7--7--x--x--7--7--|

E|-----|--------------------------------------------|

 

GUITAR 2:

 

e|--------------------------|--------------------------------------------|

B|--12--10------10------12--|--------------------------------------8--8--|

G|----------12------12------|--7--9--9--9--9--9--7--9--9--9--9--9--------|

D|--------------------------|--------------------------------------------|

A|--------------------------|--------------------------------------------|

E|--------------------------|--------------------------------------------|

 

GUITAR 1:

 

e|----------------------------------|

B|----------------------------------|

G|--5------7------4------9---7---2--|

D|--5------7------4------9---7---2--|

A|--3------5------2------7---5---0--|

E|----------------------------------|

 

GUITAR 2:

 

e|------------------------------|------------------------------|

B|--12--10------10------10--12--|--12--10------10--------------|

G|----------12------12----------|----------12------12--9--12---|

D|------------------------------|------------------------------|

A|------------------------------|------------------------------|

E|------------------------------|------------------------------|

 

GUITAR 1:

 

e|-----|--------------------------------------------|

B|-----|--------------------------------------------|

G|--4--|--9--9--x--x--x--x--9--9--9--9--x--x--9--9--|

D|--4--|--9--9--x--x--x--x--9--9--9--9--x--x--9--9--|

A|--2--|--7--7--x--x--x--x--7--7--7--7--x--x--7--7--|

E|-----|--------------------------------------------|

 

GUITAR 2:

 

e|--------------------------|--------------------------------------------|

B|--12--10------10------12--|--------------------------------------8--8--|

G|----------12------12------|--7--9--9--9--9--9--7--9--9--9--9--9--------|

D|--------------------------|--------------------------------------------|

A|--------------------------|--------------------------------------------|

E|--------------------------|--------------------------------------------|

 

GUITAR 1:

 

e|---------------------------------------------|---------------------------------------------|--------|

B|---------------------------------------------|---------------------------------------------|--------|

G|--9--9--x--x--9--9--x--x--9--9--x--x--9--10--|--9--9--x--x--9--9--x--x--9--9--x--x--9--10--|--9--9--|

D|--9--9--x--x--9--9--x--x--9--9--x--x--9--10--|--9--9--x--x--9--9--x--x--9--9--x--x--9--10--|--9--9--|

A|--7--7--x--x--7--7--x--x--7--7--x--x--7--8---|--7--7--x--x--7--7--x--x--7--7--x--x--7--8---|--7--7--|

E|---------------------------------------------|---------------------------------------------|--------|

©2015 by Fefe - Tron544

Sigueme en:

  • YouTube - White Circle
  • Facebook - White Circle
  • Instagram - White Circle
  • Twitter - White Circle
This site was designed with the
.com
website builder. Create your website today.
Start Now