DOLL

SCANDAL

TABS ~ By Fefe (Tron544)
 

Intro:

 

  /~~~( REPEAT x3 / REPITE x3 )~~~\

e|---------------------------------|-------------------------|

B|---------------------------------|-------------------------|

G|--4---4---7---7------------------|--4---4---7---7----------|

D|--4---4---7---7---7---7---5---7--|--4---4---7---7---7---7--|

A|--2---2---5---5---7---7---5---7--|--2---2---5---5---7---7--|

E|------------------5---5---3---5--|------------------5---5--|

 

 

Verse/Estrofa:

 

e|--------------|--------------|--------------|--------------|-----|

B|--------------|--------------|--------------|--------------|-----|

G|--------------|--------------|--------------|--------------|-----|

D|--7--9--7--9--|--7--9--7--9--|--7--9--7--9--|--7--9--7--9--|--9--|

A|--7--9--7--9--|--7--9--7--9--|--7--9--7--9--|--7--9--7--9--|--9--|

E|--5--7--5--7--|--5--7--5--7--|--5--7--5--7--|--5--7--5--7--|--7--|

 

 

First Chorus/Primer Estribillo:

 

e|-----------------------------------------------------------------------------------------------------|

B|-----------------------------------------------------------------------------------------------------|

G|--4--4--4--4--4--4--4--4---7--7--7--7--7--7--7--7---9--9--9--9--9--9--9--9---4--4--4--4--4--4--4--4--|

D|--4--4--4--4--4--4--4--4---7--7--7--7--7--7--7--7---9--9--9--9--9--9--9--9---4--4--4--4--4--4--4--4--|

A|--2--2--2--2--2--2--2--2---5--5--5--5--5--5--5--5---7--7--7--7--7--7--7--7---2--2--2--2--2--2--2--2--|

E|-----------------------------------------------------------------------------------------------------|

 

e|---------------------------------------------------------------------------------------------|

B|---------------------------------------------------------------------------------------------|

G|--4--4--4--4--4--4--4--4---7--7--7--7--7--7--7--7---9--9--9--9--9--9--9--9-------------------|

D|--4--4--4--4--4--4--4--4---7--7--7--7--7--7--7--7---9--9--9--9--9--9--9--9---5--5---5--5--7--|

A|--2--2--2--2--2--2--2--2---5--5--5--5--5--5--5--5---7--7--7--7--7--7--7--7---5--5---5--5--7--|

E|-----------------------------------------------------------------------------3--3---3--3--5--|

 

 

Interlude/Intermedio:

 

e|--------------------9-b-r--7--------------------|

B|-----9-b-r--7----7-----------------9-b-r--7-----|

G|--7-----------------------------7------------8--|

D|------------------------------------------------|

A|------------------------------------------------|

E|------------------------------------------------|

 

 

Verse/Estrofa:

 

e|--------------|--------------|--------------|--------------|-----|

B|--------------|--------------|--------------|--------------|-----|

G|--------------|--------------|--------------|--------------|-----|

D|--7--9--7--9--|--7--9--7--9--|--7--9--7--9--|--7--9--7--9--|--9--|

A|--7--9--7--9--|--7--9--7--9--|--7--9--7--9--|--7--9--7--9--|--9--|

E|--5--7--5--7--|--5--7--5--7--|--5--7--5--7--|--5--7--5--7--|--7--|

 

e|-------------------------------------------------------|

B|-------------------------------------------------------|

G|-------------------------------------------------------|

D|--#--#--#--#--#--#--#--#---#--#--#--#--#--#--#--#---9--|

A|--#--#--#--#--#--#--#--#---#--#--#--#--#--#--#--#---9--|

E|--#--#--#--#--#--#--#--#---#--#--#--#--#--#--#--#---7--|

 

 

Second Chorus/Segunda Estribillo:

 

e|-----------------------------------------------------------------------------------------------------|

B|-----------------------------------------------------------------------------------------------------|

G|--4--4--4--4--4--4--4--4---7--7--7--7--7--7--7--7---9--9--9--9--9--9--9--9---4--4--4--4--4--4--4--4--|

D|--4--4--4--4--4--4--4--4---7--7--7--7--7--7--7--7---9--9--9--9--9--9--9--9---4--4--4--4--4--4--4--4--|

A|--2--2--2--2--2--2--2--2---5--5--5--5--5--5--5--5---7--7--7--7--7--7--7--7---2--2--2--2--2--2--2--2--|

E|-----------------------------------------------------------------------------------------------------|

 

e|-------------------------------------------------------------------------------------------------|

B|-------------------------------------------------------------------------------------------------|

G|--4--4--4--4--4--4--4--4---7--7--7--7--7--7--7--7---9--9--9--9--9--9--9--9--------------------4--|

D|--4--4--4--4--4--4--4--4---7--7--7--7--7--7--7--7---9--9--9--9--9--9--9--9---5--5---5--5--7---4--|

A|--2--2--2--2--2--2--2--2---5--5--5--5--5--5--5--5---7--7--7--7--7--7--7--7---5--5---5--5--7---2--|

E|-----------------------------------------------------------------------------3--3---3--3--5------|

DOLL - Tron544
00:00 / 00:00
DONATE%20BUTTON%20(EN)_edited.png

Solo:

 

e|-------------------------------------|-------------------------------------|

B|-------------------------------------|-------------------------------------|

G|--6---6---9---9---4---4---2---6---6--|--6---6---9---9---4---4---2---6---6--|

D|--6---6---9---9---4---4---2---6---6--|--6---6---9---9---4---4---2---6---6--|

A|--4---4---7---7---2---2---0---4---4--|--4---4---7---7---2---2---0---4---4--|

E|-------------------------------------|-------------------------------------|

 

e|--------------------------------------------------|

B|--12-b--12-b--12-b--12-b--12-b--12-b--12-b--12-b--|

G|--------------------------------------------------|

D|--------------------------------------------------|

A|--------------------------------------------------|

E|--------------------------------------------------|

 

e|-----10-------------------------------12---------------------------17--17---15--15---17--17---15--15---17-|

B|-12------12--10--12--10------10---14------14--12--14--12------12---17--17---15--15---17--17---15--15---17-|

G|-------------------------12-------------------------------14----------------------------------------------|

D|----------------------------------------------------------------------------------------------------------|

A|----------------------------------------------------------------------------------------------------------|

E|----------------------------------------------------------------------------------------------------------|

Bridge/Puente:

 

e|--------------------------------------------------------------------------|

B|--------------------------------------------------------------------------|

G|----------------------------------------------------4--4--4---6--6--6--6--|

D|--6--6--6---4--4--4---7--7--7---6--6--6---5--5--5---4--4--4---6--6--6--6--|

A|--6--6--6---4--4--4---7--7--7---6--6--6---5--5--5---2--2--2---4--4--4--4--|

E|--4--4--4---2--2--2---5--5--5---4--4--4---3--3--3-------------------------|

 

e|-------------------------------------|

B|-------------------------------------|

G|-------------------------------------|

D|--(5)-x--x--x--x--x--x--x---7--7--7--|

A|--(5)-x--x--x--x--x--x--x---7--7--7--|

E|--(3)-x--x--x--x--x--x--x---5--5--5--|

 

 

Third Chorus/Tercer Estribillo:

 

e|-----------------------------------------------------------------------------------------------------|

B|-----------------------------------------------------------------------------------------------------|

G|--4--4--4--4--4--4--4--4---7--7--7--7--7--7--7--7---9--9--9--9--9--9--9--9---4--4--4--4--4--4--4--4--|

D|--4--4--4--4--4--4--4--4---7--7--7--7--7--7--7--7---9--9--9--9--9--9--9--9---4--4--4--4--4--4--4--4--|

A|--2--2--2--2--2--2--2--2---5--5--5--5--5--5--5--5---7--7--7--7--7--7--7--7---2--2--2--2--2--2--2--2--|

E|-----------------------------------------------------------------------------------------------------|

 

e|---------------------------------------------------------------------------------------------|

B|---------------------------------------------------------------------------------------------|

G|--4--4--4--4--4--4--4--4---7--7--7--7--7--7--7--7---9--9--9--9--9--9--9--9-------------------|

D|--4--4--4--4--4--4--4--4---7--7--7--7--7--7--7--7---9--9--9--9--9--9--9--9---5--5---5--5--7--|

A|--2--2--2--2--2--2--2--2---5--5--5--5--5--5--5--5---7--7--7--7--7--7--7--7---5--5---5--5--7--|

E|-----------------------------------------------------------------------------3--3---3--3--5--|

 

e|-----------------------------------------------------------------------------------------------------|

B|-----------------------------------------------------------------------------------------------------|

G|--4--4--4--4--4--4--4--4---4--4--4--4--4--4--4--4---7--7--7--7--7--7--7--7---7--7--7--7--7--7--7--7--|

D|--4--4--4--4--4--4--4--4---4--4--4--4--4--4--4--4---7--7--7--7--7--7--7--7---7--7--7--7--7--7--7--7--|

A|--2--2--2--2--2--2--2--2---2--2--2--2--2--2--2--2---5--5--5--5--5--5--5--5---5--5--5--5--5--5--5--5--|

E|-----------------------------------------------------------------------------------------------------|

 

e|---------------------------------------------------|

B|---------------------------------------------------|

G|--9--9--9--9--9--9--9--9---9--9--9--9--9--9--9--9--|

D|--9--9--9--9--9--9--9--9---9--9--9--9--9--9--9--9--|

A|--7--7--7--7--7--7--7--7---7--7--7--7--7--7--7--7--|

E|---------------------------------------------------|

 

e|-------------------------------------------------------------------|

B|-------------------------------------------------------------------|

G|--12--12--12--12--12--12--12--12---14--14--14--14--14--14--14--14--|

D|--12--12--12--12--12--12--12--12---14--14--14--14--14--14--14--14--|

A|--10--10--10--10--10--10--10--10---12--12--12--12--12--12--12--12--|

E|-------------------------------------------------------------------|

 

e|-----------------------------------------------------------------------------------------------------|

B|-----------------------------------------------------------------------------------------------------|

G|--4--4--#--#--4--4--#--#---4--4--#--#--4--4--#--#---7--7--#--#--7--7--#--#---7--7--#--#--7--7--#--#--|

D|--4--4--#--#--4--4--#--#---4--4--#--#--4--4--#--#---7--7--#--#--7--7--#--#---7--7--#--#--7--7--#--#--|

A|--2--2--#--#--2--2--#--#---2--2--#--#--2--2--#--#---5--5--#--#--5--5--#--#---5--5--#--#--5--5--#--#--|

E|-----------------------------------------------------------------------------------------------------|

 

e|----------------------------------------------------------------------------------------------------------|

B|----------------------------------------------------------------------------------------------------------|

G|--9--9--#--#--9--9--#--#--9--9--#--#--9--9--#--#--12--12--#--#--12--12--#--#--14--14--#--#--14--14--#--#--|

D|--9--9--#--#--9--9--#--#--9--9--#--#--9--9--#--#--12--12--#--#--12--12--#--#--14--14--#--#--14--14--#--#--|

A|--7--7--#--#--7--7--#--#--7--7--#--#--7--7--#--#--10--10--#--#--10--10--#--#--12--12--#--#--12--12--#--#--|

E|----------------------------------------------------------------------------------------------------------|

 

e|-----------------------------------------------------------------------------------------------------|

B|-----------------------------------------------------------------------------------------------------|

G|--4--4--#--#--4--4--#--#---4--4--#--#--4--4--#--#---7--7--#--#--7--7--#--#---7--7--#--#--7--7--#--#--|

D|--4--4--#--#--4--4--#--#---4--4--#--#--4--4--#--#---7--7--#--#--7--7--#--#---7--7--#--#--7--7--#--#--|

A|--2--2--#--#--2--2--#--#---2--2--#--#--2--2--#--#---5--5--#--#--5--5--#--#---5--5--#--#--5--5--#--#--|

E|-----------------------------------------------------------------------------------------------------|

 

e|----------------------------------------------------------------------------------------------------------|

B|----------------------------------------------------------------------------------------------------------|

G|--9--9--#--#--9--9--#--#--9--9--#--#--9--9--#--#--12--12--#--#--12--12--#--#--14--14--#--#--14--14--#--#--|

D|--9--9--#--#--9--9--#--#--9--9--#--#--9--9--#--#--12--12--#--#--12--12--#--#--14--14--#--#--14--14--#--#--|

A|--7--7--#--#--7--7--#--#--7--7--#--#--7--7--#--#--10--10--#--#--10--10--#--#--12--12--#--#--12--12--#--#--|

E|----------------------------------------------------------------------------------------------------------|

 

 

Outro:

 

e|--------------|---------|

B|--------------|---------|

G|--------------|--8---4--|

D|--7--9--7--9--|--8---4--|

A|--7--9--7--9--|--6---2--|

E|--5--7--5--7--|---------|

©2015 by Fefe - Tron544

Sigueme en:

  • YouTube - White Circle
  • Facebook - White Circle
  • Instagram - White Circle
  • Twitter - White Circle
This site was designed with the
.com
website builder. Create your website today.
Start Now