~ DOBONDOBONDO NO THEME ~

TABLATURAS ~ By Fefe - Tron544
 

Intro:

 

e|---------------------------------------------------|
B|---------------------------------------------------|
G|--9--9--9--9--9--9--9--9---9--9--9--9--9--9--9--9--|
D|--9--9--9--9--9--9--9--9---9--9--9--9--9--9--9--9--|
A|--7--7--7--7--7--7--7--7---7--7--7--7--7--7--7--7--|
E|---------------------------------------------------|

 

e|------------------------------|
B|------------------------------|
G|--9--9--9--9--9--9--9--9---9--|
D|--9--9--9--9--9--9--9--9---9--|
A|--7--7--7--7--7--7--7--7---7--|
E|------------------------------|

 

  /~~~~~~~~~~~~~( REPEAT x4 / REPITE x4 )~~~~~~~~~~~~~\
e|--12--12---12--12--12--12--12--12---10--10---11--11--|
B|--12--12---12--12--12--12--12--12---10--10---11--11--|
G|-----------------------------------------------------|
D|-----------------------------------------------------|
A|-----------------------------------------------------|
E|-----------------------------------------------------|

 


Verse/Estrofa:

 

  /~~~~~~~~~~~~~( REPEAT x8 / REPITE x8 )~~~~~~~~~~~~~\
e|--12--12---12--12--12--12--12--12---10--10---11--11--|--12--|
B|--12--12---12--12--12--12--12--12---10--10---11--11--|--12--|
G|-----------------------------------------------------|------|
D|-----------------------------------------------------|------|
A|-----------------------------------------------------|------|
E|-----------------------------------------------------|------|

 


First Chorus/Primer Estribillo:

 

  /~~~~~~~~~~~~~~~~~~~~~~~~~~( REPEAT x2 / REPITE x2 )~~~~~~~~~~~~~~~~~~~~~~~~~~\
e|-------------------------------------------------------------------------------|
B|-------------------------------------------------------------------------------|
G|--5--5---7--7--7---9--9---9---9--12--9---5--5---7--7--7---9--9---9---9--12--9--|
D|--5--5---7--7--7---9--9---9---9--12--9---5--5---7--7--7---9--9---9---9--12--9--|
A|--3--3---5--5--5---7--7---7---7--10--7---3--3---5--5--5---7--7---7---7--10--7--|
E|-------------------------------------------------------------------------------|

 


Verse/Estrofa:

 

  /~~~~~~~~~~~~~( REPEAT x8 / REPITE x8 )~~~~~~~~~~~~~\
e|--12--12---12--12--12--12--12--12---10--10---11--11--|--12--|
B|--12--12---12--12--12--12--12--12---10--10---11--11--|--12--|
G|-----------------------------------------------------|------|
D|-----------------------------------------------------|------|
A|-----------------------------------------------------|------|
E|-----------------------------------------------------|------|

 


Bridge/Puente:

 

e|--12------10--11--12----15------19--15--12------12--|
B|--12------10--11--12----15------19--15--12------12--|
G|------------------------------------------------9---|
D|----------------------------------------------------|
A|----------------------------------------------------|
E|----------------------------------------------------|

 

e|--------------------------------------------------------|
B|--------------------------------------------------------|
G|---------7--7----------5--5-----------------------------|
D|--7--7---7--7---5--5---5--5---7--7---9--9---2--4--5--6--|
A|--7--7---5--5---5--5---3--3---7--7---9--9---2--4--5--6--|
E|--5--5----------3--3----------5--5---7--7---0--2--3--4--|

 

e|------------------------------------------------------------|
B|------------------------------------------------------------|
G|---------7--7----------5--5---------------------------------|
D|--7--7---7--7---5--5---5--5---7-7--7--7--7---9---9---9---9--|
A|--7--7---5--5---5--5---3--3---7-7--7--7--7---9---9---9---9--|
E|--5--5----------3--3----------5-5--5--5--5---7---7---7---7--|

 


Second Chorus/Segundo Estribillo:

 

  /~~~~~~~~~~~~~~~~~~~~~~~~~~( REPEAT x2 / REPITE x2 )~~~~~~~~~~~~~~~~~~~~~~~~~~\
e|-------------------------------------------------------------------------------|
B|-------------------------------------------------------------------------------|
G|--5--5---7--7--7---9--9---9---9--12--9---5--5---7--7--7---9--9---9---9--12--9--|
D|--5--5---7--7--7---9--9---9---9--12--9---5--5---7--7--7---9--9---9---9--12--9--|
A|--3--3---5--5--5---7--7---7---7--10--7---3--3---5--5--5---7--7---7---7--10--7--|
E|-------------------------------------------------------------------------------|

 

  /~~~~~~~~~~~~~~~~~~~~~~~~~~~~~~~( REPEAT x2 / REPITE x2 )~~~~~~~~~~~~~~~~~~~~~~~~~~~~~~~\
e|-----------------------------------------------------------------------------------------|
B|-----------------------------------------------------------------------------------------|
G|--6--6---8--8--8---10--10---10---10--13--10---6--6---8--8--8---10--10---10---10--13--10--|
D|--6--6---8--8--8---10--10---10---10--13--10---6--6---8--8--8---10--10---10---10--13--10--|
A|--4--4---6--6--6---8---8----8----8---11--8----4--4---6--6--6---8---8----8----8---11--8---|
E|-----------------------------------------------------------------------------------------|

Dobondobondo no Theme - Tron544
00:00 / 00:00

©2019 by Fefe - Tron544

Sigueme en:

  • YouTube - White Circle
  • Facebook - White Circle
  • Instagram - White Circle
  • Twitter - White Circle
This site was designed with the
.com
website builder. Create your website today.
Start Now