DETEKOI TOBIKIRI ZENKAI POWER!

DRAGON BALL Z

TABS ~ By Fefe (Tron544)

 

Intro:

 

e|--------------------|---------|

B|--------------------|---------|

G|--9---7------9---7--|--9---7--|

D|--------------------|---------|

A|--7---5------7---5--|--7---5--|

E|--------------------|---------|

 

 

Verse/Estrofa:

 

e|---------------------------------------|

B|--7--8--7--8--8--8---7--8--8--7--7-----|

G|------------------------------------9--|

D|---------------------------------------|

A|---------------------------------------|

E|---------------------------------------|

 

e|--------------------------------------------------|

B|--7--8--7--8--8--8---7--8--8--8--7--8-/-10--8-----|

G|-----------------------------------------------9--|

D|--------------------------------------------------|

A|--------------------------------------------------|

E|--------------------------------------------------|

 

e|-----------------------------------------------------------------------------|

B|---------------------------------------------8-----------------10--10--8-----|

G|--7--7--7--7--7--7--9---------------------9-----9--8----------------------9--|

D|------------------------7--7--7--9----10--------------9--9--9----------------|

A|-----------------------------------------------------------------------------|

E|-----------------------------------------------------------------------------|

 

 

Chorus/Estribillo:

 

e|--------------7------------7------------------------------------------------------7----------------|

B|-----------------8------------8------------8--10--8--10-b--10--8---------------------8-------------|

G|--9--9--9--9--------9------------9------9-----------------------------9--9--9--9--------9----------|

D|--------------------------------------------------------------------------------------------7---9--|

A|---------------------------------------------------------------------------------------------------|

E|---------------------------------------------------------------------------------------------------|

 

e|--------------7-----------------------------------------------|

B|-----------------8---------------8---7--7--7--7--8--10--8-----|

G|--9--9--9--9--------9--------------------------------------9--|

D|------------------------7---9---------------------------------|

A|--------------------------------------------------------------|

E|--------------------------------------------------------------|

Detekoi Tobikiri Zenkai Power! (Backing Track) - Tron544
00:00 / 00:00
DONATE%20BUTTON%20(EN)_edited.png

Bridge/Puente:

 

e|---------------------------------------------------------|

B|---------------------------------------------------------|

G|--7--7--7--7--7--7--7--7--9---7--7--7--7--7--7--7--7--9--|

D|---------------------------------------------------------|

A|---------------------------------------------------------|

E|---------------------------------------------------------|

 

e|------------------------------------------------------------------------|

B|-----------------------------------------------8--10--10-b--10---10-----|

G|--7--7--7--7--7--7--7--7--7--7--7--7--7--7--9------------------------9--|

D|------------------------------------------------------------------------|

A|------------------------------------------------------------------------|

E|------------------------------------------------------------------------|

 

e|-----------------------------------------------|

B|--8--10--8--10--8--10--10-b--10--8-------------|

G|------------------------------------9----7--9--|

D|-----------------------------------------------|

A|-----------------------------------------------|

E|-----------------------------------------------|

 

 

Outro:

 

e|------------------------------------------------------------------------------------------------------|

B|--8---7--7--7--7--8--10--8----------------8-----------------10--10--8---------------------------------|

G|----------------------------9----------9-----9--8----------------------9----9--7-------------------9--|

D|-----------------------------------10--------------9--9--9------------------------9--8--7--5--2----9--|

A|----------------------------------------------------------------------------7--5-------------------7--|

E|----------------------------------------------------------------------------------7--6--5--3--0-------|

©2015 by Fefe - Tron544

Sigueme en:

  • YouTube - White Circle
  • Facebook - White Circle
  • Instagram - White Circle
  • Twitter - White Circle
This site was designed with the
.com
website builder. Create your website today.
Start Now