DEAL WITH THE DEVIL

KAKEGURUI

TABS ~ By Fefe (Tron544)

 

Intro:

GUITAR (Lead):

e|----10----10----10----10----10----10----8-----8---|
B|----11----11----11----11----11----11----10----10--|
G|----12----12----12----12----12----12----11----11--|
D|--------------------------------------------------|
A|--------------------------------------------------|
E|--------------------------------------------------|

e|----10----10----10----10----9---9---9--9--9--8---8---8--8-----|
B|----11----11----11----11----11--11--11-11-11-10--10--10-10----|
G|----12----12----12----12----12--12--12-12-12-11--11--11-11----|
D|--------------------------------------------------------------|
A|--------------------------------------------------------------|
E|--------------------------------------------------------------|


Verse/Estrofa:

GUITAR (Vocals):

e|--------------------------------------------------------------------------------------------|
B|--8----7----6----5--------------------------------------------------------------------------|
G|----------------------8----6----5--------6/7-------6/7-------6/7-------6/7-------5/6--------|
D|------------------------------------------------5---------5---------5---------5-------------|
A|--------------------------------------------------------------------------------------------|
E|--------------------------------------------------------------------------------------------|

e|----------------------------------------------------------------------------------------|
B|--8----7----6----5-----------------------------------------------------------7/9--------|
G|----------------------8----6----5--------6/7-------6/7-------6/7------7-----------------|
D|------------------------------------------------5---------5-----------------------------|
A|----------------------------------------------------------------------------------------|
E|----------------------------------------------------------------------------------------|

GUITAR (Vocals):

e|-----------------------------------------|
B|--8----7----6----5-----------------------|
G|----------------------8----6----5--------|
D|-----------------------------------------|
A|-----------------------------------------|
E|-----------------------------------------|

GUITAR (Lead):

e|-----------------------------------------------------|
B|-----------------------------------------------------|
G|--6--------6-------6-------6--------6-5--------------|
D|-----8--5----8--5----8--5-----8--5-------7--4-7-4-4--|
A|-----------------------------------------------------|
E|-----------------------------------------------------|

GUITAR (Vocals):

e|----------------------------------------------|
B|----------------------------------------------|
G|--6/7-------6/7-------6/7------------6--------|
D|---------5---------5--------------------------|
A|----------------------------------------------|
E|----------------------------------------------|

GUITAR (Lead):

e|----------------------------------------------------|
B|---------------------------8--8--8-8-8-7--7--7-7----|
G|--6--------6-------6--------------------------------|
D|-----8--5----8--5----8--5---------------------------|
A|----------------------------------------------------|
E|----------------------------------------------------|

GUITAR (Vocals):

e|-----------------------------------------|
B|--8----7----6----5-----------------------|
G|----------------------8----6----5--------|
D|-----------------------------------------|
A|-----------------------------------------|
E|-----------------------------------------|

GUITAR (Lead):

e|-----------------------------------------------------|
B|-----------------------------------------------------|
G|--6--------6-------6-------6--------6-5--------------|
D|-----8--5----8--5----8--5-----8--5-------7--4-7-4-4--|
A|-----------------------------------------------------|
E|-----------------------------------------------------|

GUITAR (Vocals):

e|-----------------------------------------------------|
B|-----------------------------------------------------|
G|--6/7----7--7/10----10--7------7--7-7-7-7--7--7-7----|
D|-----------------------------------------------------|
A|-----------------------------------------------------|

E|-----------------------------------------------------|

GUITAR (Lead):

e|----------------------------------------------------|
B|---------------------------8--8--8-8-8-7--7--7-7----|
G|--8--------8-------8--------------------------------|
D|-----8--5----8--5----8--5---------------------------|
A|----------------------------------------------------|
E|----------------------------------------------------|

 


Pre-Chorus/Pre-Estribillo:

GUITAR (Vocals):

e|--------------------------------------------------|
B|------10/11----10p8--10---8----6-------6--/8------|
G|------------------------------------7-------------|
D|--------------------------------------------------|
A|--------------------------------------------------|
E|--------------------------------------------------|

GUITAR (Lead):

e|----------------------------------------------------|
B|----------------------------------------------------|
G|-----8-----8----8----8--------7-----7----7----7-----|
D|--8-----8----8-----8----8--7-----7----7-----7----7--|
A|----------------------------------------------------|
E|----------------------------------------------------|

GUITAR (Vocals):

e|------------------------------------------------|
B|------------------------------------------------|
G|----5--5--5--7/8---7---5-------5-----5--/7------|
D|----------------------------8-----8-------------|
A|------------------------------------------------|
E|------------------------------------------------|

GUITAR (Lead):

e|----------------------------------------------------|
B|-----------------------------------------3----3-----|
G|-----5-----5----7----5--------3-----3---------------|
D|--5-----5----5-----7----7--3-----3----3-----3----3--|
A|----------------------------------------------------|
E|----------------------------------------------------|

GUITAR (Vocals):

e|----------------------------------------------------------|
B|------10/11----10p8--10---8----10--10--10--11--10--8------|
G|------------------------------------------------------10--|
D|----------------------------------------------------------|
A|----------------------------------------------------------|
E|----------------------------------------------------------|

GUITAR (Lead):

e|----------------------------------------------------|
B|----------------------------------------------------|
G|-----8-----8----8----8--------5-----5----3----3-----|
D|--8-----8----8-----8----8--4-----4----3-----3----3--|
A|----------------------------------------------------|
E|----------------------------------------------------|

GUITAR (Vocals):

e|----------------------------------------------|
B|------------------8----9-------9--9/10--------|
G|--8----9----10-------------9------------------|
D|----------------------------------------------|
A|----------------------------------------------|
E|----------------------------------------------|

GUITAR (Lead):

e|----------------------------------------------------|
B|----------------------------------------------------|
G|-----7-----7----7----7-----7--7--7-7-7-6--6--6-6----|
D|--6-----6----6-----6----6--6--6--6-6-6-5--5--5-5----|
A|----------------------------------------------------|
E|----------------------------------------------------|

e|------------------------------------------------------------------9----|
B|--10-10--10-10--10-10--10-10--10-10---10-10--10-10--10-10--10-10-------|
G|------------------------------------------------------------------6----|
D|--7--7---7--7---7--7---7--7---7--7----7--7---7--7---7--7---7--7--------|
A|-----------------------------------------------------------------------|
E|-----------------------------------------------------------------------|

Deal with the devil - Tron544
00:00 / 00:00
DONATE%20BUTTON%20(EN)_edited.png

Chorus/Estribillo: x2

GUITAR (Vocals):

e|----10--8---------------------------------------------------|
B|----------10--8---9--8-------------8-----8-----8-----8--8---|
G|-----------------------10--7---10----10----10----10---------|
D|------------------------------------------------------------|
A|------------------------------------------------------------|
E|------------------------------------------------------------|

GUITAR (Lead):

e|----10-10-10-10---9-9-9-9---9-9---8-8-8-8---13-13-13-13---13-13--|
B|----10-10-10-10---8-8-8-8---8-8---6-6-6-6---13-13-13-13---13-13--|
G|----7--7--7--7----6-6-6-6---6-6---5-5-5-5---10-10-10-10---10-10--|
D|-----------------------------------------------------------------|
A|-----------------------------------------------------------------|
E|-----------------------------------------------------------------|

GUITAR (Vocals):

e|-----------------------------9-----9-----9-------------|
B|--------8-----8-----8-----8----------10------8/10------|
G|----10----10----10----10-------------------------------|
D|-------------------------------------------------------|
A|-------------------------------------------------------|
E|-------------------------------------------------------|

GUITAR (Lead):

e|----8-8-8-8---8-8-8-8---8--9---10---12----9------|
B|----6-6-6-6---6-6-6-6---6-----------------8------|
G|----7-7-7-7---7-7-7-7---7--6--------------6------|
D|-------------------------------------------------|
A|-------------------------------------------------|
E|-------------------------------------------------|

GUITAR (Vocals):

e|----10--8---------------------------9--------------------------|
B|----------10--8---9--8-----10---10----10--8--------------------|
G|-----------------------10---------------------10--7-10--10/13--|
D|---------------------------------------------------------------|
A|---------------------------------------------------------------|
E|---------------------------------------------------------------|

GUITAR (Lead):

e|----10-10-10-10---9-9-9-9---9-9---12-12-12-12---13-13-13-13---13-13--|
B|----10-10-10-10---8-8-8-8---8-8---11-11-11-11---13-13-13-13---13-13--|
G|----7--7--7--7----6-6-6-6---6-6---9--9--9--9----10-10-10-10---10-10--|
D|---------------------------------------------------------------------|
A|---------------------------------------------------------------------|
E|---------------------------------------------------------------------|

GUITAR (Vocals):

e|----------------------------------------------|
B|----------------------9-9-9-9-9-9---9/10------|
G|----------10------10--------------------------|
D|----------------------------------------------|
A|----------------------------------------------|
E|----------------------------------------------|

GUITAR (Lead):

e|----10-10-10-10---10-10-10-10---10--10-10-10-10-10-10---9------|
B|----9--9--9--9----9--9--9--9----9---9--9--9--9--9--9----8------|
G|----7--7--7--7----7--7--7--7----7---7--7--7--7--7--7----6------|
D|---------------------------------------------------------------|
A|---------------------------------------------------------------|
E|---------------------------------------------------------------|

 


Outro:

GUITAR (Vocals):

e|--------------------------------------------------------|
B|----10--10-10-----9-9-9-9-----8-8-8-8----8/10--8/10-----|
G|--------------------------------------------------------|
D|--------------------------------------------------------|
A|--------------------------------------------------------|
E|--------------------------------------------------------|

GUITAR (Lead):

e|--#--13-13-13-13-#-#-13-13-13-13-#-#-#-13--13-13-13-13-13-#-#-13-13-13-13-#-13-#-#--|
B|--#--------------#-#-------------#-#-#--------------------#-#-------------#----#-#--|
G|--#--10-10-10-10-#-#-10-10-10-10-#-#-#-10--10-10-10-10-10-#-#-10-10-10-10-#-10-#-#--|
D|------------------------------------------------------------------------------------|
A|------------------------------------------------------------------------------------|
E|------------------------------------------------------------------------------------|

GUITAR (Vocals):

e|----------------------------9-9-9-9-9-9---------------|
B|----10--10-10-----9-9-9-9-----------------------------|
G|------------------------------------------------------|
D|------------------------------------------------------|
A|------------------------------------------------------|
E|------------------------------------------------------|

GUITAR (Lead):

e|--#-#-13-13-13-13-#-#-13-13-13-13-#-13-13-13-21-21-21-21-21-21--------------------------------------|
B|--#-#-------------#-#-------------#------------------------------------12/13----h15p13h15p13h15p13--|
G|--#-#-10-10-10-10-#-#-10-10-10-10-#-10-10-10-18-18-18-18-18-18--------------------------------------|
D|----------------------------------------------------------------------------------------------------|
A|----------------------------------------------------------------------------------------------------|
E|----------------------------------------------------------------------------------------------------|

©2015 by Fefe - Tron544

Sigueme en:

  • YouTube - White Circle
  • Facebook - White Circle
  • Instagram - White Circle
  • Twitter - White Circle
This site was designed with the
.com
website builder. Create your website today.
Start Now