~ DEAD END ~

ACORDES ~ Click aquí para Descargarlos!

 

* Necesitas del programa "GUITAR PRO 5"
          ~> DESCARGALO AQUI! <~

 

 

TABLATURAS ~ By Fefe - Tron544

 

Intro:

 

e|--------------------------------------------|

B|--9--8--------------------------------------|

G|---------10--8---------------------------8--|

D|-----------------11--10---10--8--10--11-----|

A|--------------------------------------------|

E|--------------------------------------------|

 

e|----------------------------------------------|

B|--9--8---------------------------9--8---------|

G|---------10--8------------8------------9--10--|

D|-----------------11--10------11---------------|

A|----------------------------------------------|

E|----------------------------------------------|

 

e|--------------------------------------------|------------------------------------------|

B|--9--8--------------------------------------|--9--8---------------8--9--11--9--11--13--|

G|---------10--8---------------------------8--|---------10--8---10-----------------------|

D|-----------------11--10---10--8--10--11-----|------------------------------------------|

A|--------------------------------------------|------------------------------------------|

E|--------------------------------------------|------------------------------------------|

 

 

Verse/Estrofa:

 

e|------------------------------------------------------------------|

B|------------------------------------------------------------------|

G|-----------------------------------------------------------8------|

D|------8--10--8--10--8---11--10--8-------8--10--10--10--10-----10--|

A|--11--------------------------------11----------------------------|

E|------------------------------------------------------------------|

 

e|-----------------------------------------------------|

B|-----------------------------------------------------|

G|----------------------------------------8--10--8-----|

D|------8--10--8--10--8---11--10--8--10-------------8--|

A|--11-------------------------------------------------|

E|-----------------------------------------------------|

 

e|-------------------------------------------------|

B|--9--8---9--8----------------------8-------------|

G|----------------8--8----8--8--10------10--8------|

D|---------------------------------------------10--|

A|-------------------------------------------------|

E|-------------------------------------------------|

 

e|---------------------------------------------|

B|--9--8---9--8------------------9--11--9------|

G|----------------8--8----8--10------------10--|

D|---------------------------------------------|

A|---------------------------------------------|

E|---------------------------------------------|

 

e|---------------------------------------------------------------|

B|--------------------------------------------------8--10--8--7--|

G|--10--10--10--10--10--10--10--10--10--10--10--10---------------|

D|---------------------------------------------------------------|

A|---------------------------------------------------------------|

E|---------------------------------------------------------------|

 

e|------------------------------------------------------------|

B|----------------------------------------------8--10--8--10--|

G|--10--10--10--10--10--10--10--10--10--10--10----------------|

D|------------------------------------------------------------|

A|------------------------------------------------------------|

E|------------------------------------------------------------|

 

 

Pre-Chorus/Pre-Estribillo:

 

e|-------------------------------------------------------|

B|--9--9------------------------11--11--9----------9--9--|

G|--------12--10--10--12--12---------------12--12--------|

D|-------------------------------------------------------|

A|-------------------------------------------------------|

E|-------------------------------------------------------|

 

e|------------------------------------------------------------------|

B|-------------------------------------------------------9--11--13--|

G|--8-----------------------12--10--9--10--12----12--12-------------|

D|-----11--10----10--8--10------------------------------------------|

A|------------------------------------------------------------------|

E|------------------------------------------------------------------|

 

 

Chorus/Estribillo:

 

e|-----------------------------------------|-------------------------|

B|----------9--11---11--13--13--11--9--11--|----------8--8-h-10--10--|

G|--10--12---------------------------------|--10--12-----------------|

D|-----------------------------------------|-------------------------|

A|-----------------------------------------|-------------------------|

E|-----------------------------------------|-------------------------|

 

e|-------------------------------9--8-----------------------|

B|----------9--11--13--9---------------11--9------9--11-----|

G|--10--12----------------12--9---------------12---------8--|

D|----------------------------------------------------------|

A|----------------------------------------------------------|

E|----------------------------------------------------------|

 

e|---------------------------------------|-------------9--8---------|

B|---------------------------------------|-------------------11--9--|

G|--10--8--------------8--10---------12--|--12--10--9---------------|

D|---------11--11--11---------10--9------|--------------------------|

A|---------------------------------------|--------------------------|

E|---------------------------------------|--------------------------|

 

e|-------------------------9--8----------|----------9--11--9--8------------------9--8--8--9--|

B|--9--11--9--11--13----9--------11--11--|--11--11---------------9------9--9--9--------------|

G|---------------------------------------|---------------------------------------------------|

D|---------------------------------------|---------------------------------------------------|

A|---------------------------------------|---------------------------------------------------|

E|---------------------------------------|---------------------------------------------------|

 

 

Outro:

 

e|--16--15-----------------------------------------|--16--15----------------15--16--18--16--18--20--|

B|-----------18--16----------------------------16--|-----------18--16---18--------------------------|

G|--------------------18--17---17--15--17--18------|------------------------------------------------|

D|-------------------------------------------------|------------------------------------------------|

A|-------------------------------------------------|------------------------------------------------|

E|-------------------------------------------------|------------------------------------------------|

 

e|------------------------------|

B|-----------4------------------|

G|-----3--------6--5--3---3--3--|

D|--3-----3---------------3--3--|

A|------------------------1--1--|

E|------------------------------|

 

 

Dead END - Tron544
00:00 / 00:00

©2019 by Fefe - Tron544

Sigueme en:

  • YouTube - White Circle
  • Facebook - White Circle
  • Instagram - White Circle
  • Twitter - White Circle
This site was designed with the
.com
website builder. Create your website today.
Start Now