DAZE

MEKAKUCITY ACTORS

TABS ~ By Fefe (Tron544)

 

Intro:

 

GUITAR 1:


e|--8---8---8----------9--11---8----------9--11--|

B|--9---9---9---9--11----------9---9--11---------|

G|--10--10--10-----------------10----------------|

D|--10--10--1------------------10----------------|

A|--8---8---8------------------8-----------------|

E|-----------------------------------------------|


GUITAR 3:


e|----------------------16--18---------------16--18--|

B|--18--18--18--16--18-----------18--16--18----------|

G|--17--17--17-------------------17------------------|

D|---------------------------------------------------|

A|---------------------------------------------------|

E|---------------------------------------------------|


GUITAR 1:


e|--8----------9--11---9---9---#--9---9---|

B|--9---9--11----------11--11--#--11--11--|

G|--10-----------------11--11--#--11--11--|

D|--10-----------------11--11--#--11--11--|

A|--8------------------9---9---#--9---9---|

E|----------------------------------------|


GUITAR 3:


e|---------------16--18----------------------|

B|---18--16--18-----------19--19--#--19--19--|

G|---17-------------------18--18--#--18--18--|

D|-------------------------------------------|

A|-------------------------------------------|

E|-------------------------------------------|

 

GUITAR 1:

 

e|--6--6--6--6---2--2--2--2---1--1---4--4---6--6--6--6--6--|

B|--6--6--6--6---2--2--2--2---1--1---4--4---6--6--6--6--6--|

G|--6--6--6--6---3--3--3--3---1--1---5--5---6--6--6--6--6--|

D|--8--8--8--8---4--4--4--4---3--3---6--6---8--8--8--8--8--|

A|--8--8--8--8---4--4--4--4---3--3---6--6---8--8--8--8--8--|

E|--6--6--6--6---2--2--2--2---1--1---4--4---6--6--6--6--6--|

 

GUITAR 3:

 

e|--------------------------------------------------------------------------------------|

B|--------18-18-16-16-17-18-16----------------------18-18-16-16-17-18-16----------------|

G|--15-15----------------------18-15--18-15---15-15----------------------18-15-18-15-18-|

D|--------------------------------------------------------------------------------------|

A|--------------------------------------------------------------------------------------|

E|--------------------------------------------------------------------------------------|

 

GUITAR 1:

 

e|--6--6--6--6---2--2--2--2---6--6--6--6---8---8---|

B|--6--6--6--6---2--2--2--2---8--8--8--8---9---9---|

G|--6--6--6--6---3--3--3--3---8--8--8--8---10--10--|

D|--8--8--8--8---4--4--4--4---8--8--8--8---10--10--|

A|--8--8--8--8---4--4--4--4---6--6--6--6---8---8---|

E|--6--6--6--6---2--2--2--2------------------------|

 

GUITAR 3:

 

e|-----------------------------------------------------------------------------------------------|

B|----------18--18--16--16--17--18--16-------------------------------------------16------18--18--|

G|--15--15------------------------------18--15--18--15---15------15--18--15--18------18--17--17--|

D|-----------------------------------------------------------18----------------------------------|

A|-----------------------------------------------------------------------------------------------|

E|-----------------------------------------------------------------------------------------------|

 

 

Verse/Estrofa:

 

GUITAR 1:

 

e|------#--#--#--#--#---2---#--#--#--#--#---1---#--#--#--#--#-------------------|

B|--6---#--#--#--#--#---2---#--#--#--#--#---1---#--#--#--#--#---6---------------|

G|--6---#--#--#--#--#---3---#--#--#--#--#---1---#--#--#--#--#---6---------6--8--|

D|--6---#--#--#--#--#---4---#--#--#--#--#---3---#--#--#--#--#---6---6--8--------|

A|------#--#--#--#--#---4---#--#--#--#--#---3---#--#--#--#--#-------------------|

E|--6---#--#--#--#--#---2---#--#--#--#--#---1---#--#--#--#--#---6---------------|

 

GUITAR 2:

 

e|-----------------------------------------------------------------------------------------|

B|-----------------------------------------------------------------------------------------|

G|--10--10--------------10-----------------------------------------10--10------------------|

D|----------13--11--13-------------------11-----------11---13--13----------------------11--|

A|--------------------------13---11--13-------11--13-----------------------13--11--13------|

E|-----------------------------------------------------------------------------------------|

 

GUITAR 3:

 

e|------|

B|--18--|

G|--17--|

D|------|

A|------|

E|------|

 

GUITAR 1:

 

e|------#--#--#--#--#---2---#--#--#--#--#---1---#--#--#--#--#-------#--#--#-----|

B|--6---#--#--#--#--#---2---#--#--#--#--#---1---#--#--#--#--#---6---#--#--#--6--|

G|--6---#--#--#--#--#---3---#--#--#--#--#---1---#--#--#--#--#---6---#--#--#--6--|

D|--6---#--#--#--#--#---4---#--#--#--#--#---3---#--#--#--#--#---6---#--#--#--6--|

A|------#--#--#--#--#---4---#--#--#--#--#---3---#--#--#--#--#-------#--#--#-----|

E|--6---#--#--#--#--#---2---#--#--#--#--#---1---#--#--#--#--#---6---#--#--#--6--|

 

GUITAR 2:

 

e|---------------------------------------------------------------------|

B|---------------------------------------------------------------------|

G|--10--10--------------10---------------------------------------------|

D|----------13--11--13-------------------11---11--13--11---------------|

A|--------------------------13---11--13--------------------11--11--13--|

E|---------------------------------------------------------------------|

 

GUITAR 3:

 

e|-------------------9---9--|

B|--9---11--9---11---9---9--|

G|--10--10--10--10----------|

D|--------------------------|

A|--------------------------|

E|--------------------------|

 

GUITAR 1:

 

e|------#--#--#--#--#---2---#--#--#--#--#---1---#--#--#--#--#-------#--#--#-----|

B|--6---#--#--#--#--#---2---#--#--#--#--#---1---#--#--#--#--#---6---#--#--#--6--|

G|--6---#--#--#--#--#---3---#--#--#--#--#---1---#--#--#--#--#---6---#--#--#--6--|

D|--6---#--#--#--#--#---4---#--#--#--#--#---3---#--#--#--#--#---6---#--#--#--6--|

A|------#--#--#--#--#---4---#--#--#--#--#---3---#--#--#--#--#-------#--#--#-----|

E|--6---#--#--#--#--#---2---#--#--#--#--#---1---#--#--#--#--#---6---#--#--#--6--|

 

GUITAR 2:

 

e|-----------------------------------------------------------------------------|

B|---------------------------------------------------------------------11------|

G|--10--10--------------10-------------------------------------10--13------13--|

D|----------13--11--13-------------------11-----------11---13------------------|

A|--------------------------13---11--13-------11--13---------------------------|

E|-----------------------------------------------------------------------------|

 

GUITAR 3:

 

e|--------------------------------------9---9--9-----------9-/-11--9--9--|

B|--11---9---11-------------------------9---9--9---11--11--9-/-11--9--9--|

G|--10---10--10---8-b-r--6----------6--------------10--10----------------|

D|---------------------------6-h-8---------------------------------------|

A|-----------------------------------------------------------------------|

E|-----------------------------------------------------------------------|

 

GUITAR 1:

 

e|------#--#--#--#--#---2---#--#--#--#--#---1---#--#-------#--#---1--1--1--1--|

B|--6---#--#--#--#--#---2---#--#--#--#--#---1---#--#---6---#--#---3--3--4--3--|

G|--6---#--#--#--#--#---3---#--#--#--#--#---1---#--#---6---#--#---3--3--3--3--|

D|--6---#--#--#--#--#---4---#--#--#--#--#---3---#--#---6---#--#---3--3--3--3--|

A|------#--#--#--#--#---4---#--#--#--#--#---3---#--#-------#--#---1--1--1--1--|

E|--6---#--#--#--#--#---2---#--#--#--#--#---1---#--#---6---#--#---------------|

 

GUITAR 2:

 

e|---------------------------------------------------------------------|

B|---------------------------------------------------------------------|

G|--10--10--------------10-----------------------------------------10--|

D|----------13--11--13-------------------11-----------11---13--13------|

A|--------------------------13---11--13-------11--13-------------------|

E|---------------------------------------------------------------------|

 

GUITAR 3:

 

e|---------------------------------------------------------------|

B|--11---9---11--------------------------------------------------|

G|--10---10--10---8-b-r--6--6---8-b-r--6--8-b-r--6---7--7--8--7--|

D|---------------------------------------------------8--8--8--8--|

A|---------------------------------------------------------------|

E|---------------------------------------------------------------|

 

 

Pre-Chorus/Pre-Estribillo:

 

GUITAR 1:

 

e|--2--2--2--2--2--2--2--2---1--1--1--1---1--1--1--1--|

B|--2--2--2--2--2--2--2--2---1--1--1--1---2--2--1--1--|

G|--3--3--3--3--3--3--3--3---1--1--1--1---3--3--3--3--|

D|--4--4--4--4--4--4--4--4---3--3--3--3---3--3--3--3--|

A|--4--4--4--4--4--4--4--4---3--3--3--3---1--1--1--1--|

E|--2--2--2--2--2--2--2--2---1--1--1--1---------------|

 

GUITAR 2:

 

e|----------|------------------------------------------------------------------------------------|

B|----------|------------------------------------------------------------------------------------|

G|----------|---------------------------------------------------10-------------------------------|

D|--13--11--|-------------------------------------------11--13------13--11--13--11---------------|

A|----------|--13--11--13--11--13---13--11--13--11--13------------------------------13---11--13--|

E|----------|------------------------------------------------------------------------------------|

 

GUITAR 3:

 

e|--6--6--6--6--6--6--6--6---4--4--4--4---------------|

B|--6--6--6--6--6--6--6--6---4--4--4--4---------------|

G|----------------------------------------6--6--5--5--|

D|----------------------------------------6--6--6--6--|

A|----------------------------------------------------|

E|----------------------------------------------------|

 

GUITAR 1:

 

e|--6--6--6--6---8---8---8---8-----------------------------|

B|--8--8--8--8---9---9---9---9----6--6--6--6---6--6--6--6--|

G|--8--8--8--8---10--10--10--10---6--6--6--6---6--6--6--6--|

D|--8--8--8--8---10--10--10--10---6--6--6--6---6--6--6--6--|

A|--6--6--6--6---8---8---8---8-----------------------------|

E|--------------------------------6--6--6--6---6--6--6--6--|

 

GUITAR 2:

 

e|------------------------------------------------------------------------|

B|-----------------------------------14--13--11---------------------------|

G|----------------------10--13---10--------------13--13--10--13-----------|

D|--11------11--11--13--------------------------------------------13--11--|

A|------13----------------------------------------------------------------|

E|------------------------------------------------------------------------|

 

GUITAR 3:

 

e|-----------------------------9--9--9--9---8--8--9--9--|

B|---------7--7---9--9--9--9---9--9--9--9---9--9--9--9--|

G|--3--3---6--6---8--8--8--8----------------------------|

D|--4--4------------------------------------------------|

A|------------------------------------------------------|

E|------------------------------------------------------|

 

GUITAR 1:

 

e|--2--2--2--2--2--2--2--2---1--1--1--1---1--1--1---3--3--3--|

B|--2--2--2--2--2--2--2--2---1--1--1--1---2--2--2---4--4--4--|

G|--3--3--3--3--3--3--3--3---1--1--1--1---3--3--3---5--5--5--|

D|--4--4--4--4--4--4--4--4---3--3--3--3---3--3--3---5--5--5--|

A|--4--4--4--4--4--4--4--4---3--3--3--3---1--1--1---3--3--3--|

E|--2--2--2--2--2--2--2--2---1--1--1--1----------------------|

 

GUITAR 2:

 

e|------------------------------------------------------------------------------------|

B|----------------------------------------------------------------11------------------|

G|---------------------------------------------------10---------------10------10------|

D|-------------------------------------------11--13------13--11-----------13------13--|

A|--13--11--13--11--13---13--11--13--11--13-------------------------------------------|

E|------------------------------------------------------------------------------------|

 

GUITAR 3:

 

e|--6--6--6--6--6--6--6--6---4--4--4--4----------------------|

B|--6--6--6--6--6--6--6--6---4--4--4--4----------------------|

G|----------------------------------------6--6--6---4--4--4--|

D|----------------------------------------6--6--6---4--4--4--|

A|-----------------------------------------------------------|

E|-----------------------------------------------------------|

 

GUITAR 1:

 

e|--6--6--6--6--6---8---8---8---8---8----9---9---9---9---9---9----8---8---8---8---|

B|--8--8--8--8--8---9---9---9---9---9----11--11--11--11--11--11---9---9---9---9---|

G|--8--8--8--8--8---10--10--10--10--10---11--11--11--11--11--11---10--10--10--10--|

D|--8--8--8--8--8---10--10--10--10--10---11--11--11--11--11--11---10--10--10--10--|

A|--6--6--6--6--6---8---8---8---8---8----9---9---9---9---9---9----8---8---8---8---|

E|--------------------------------------------------------------------------------|

 

GUITAR 2:

 

e|------------------------------------------------------------------|

B|------------------------------------------------------------------|

G|--------------------------------------------------------------10--|

D|--11---------------11-------------------11-/-13---13--11--13------|

A|-----------11--13---------------11--13----------------------------|

E|-------13---------------13--13------------------------------------|

 

GUITAR 3:

 

e|--16---16-h-18-p-16----------------------------------------------------------16------------------|

B|---------------------18--16---16-h-18-p-16-------------------16--18--16--18------16------16--18--|

G|--------------------------------------------18--15---15--18--------------------------18----------|

D|-------------------------------------------------------------------------------------------------|

A|-------------------------------------------------------------------------------------------------|

E|-------------------------------------------------------------------------------------------------|

daze - Tron544
00:00 / 00:00
DONATE%20BUTTON%20(EN)_edited.png

Chorus/Estribillo:

 

GUITAR 1:

 

e|--4--4--4--4--4---3--3--3--3--3--|

B|--6--6--6--6--6---4--4--4--4--4--|

G|--6--6--6--6--6---5--5--5--5--5--|

D|--6--6--6--6--6---5--5--5--5--5--|

A|--4--4--4--4--4---3--3--3--3--3--|

E|---------------------------------|

 

GUITAR 2:

 

e|----------------------------------------------------|

B|--13--11-------11------11------11--13-------13--11--|

G|-----------13------13------13----------10-----------|

D|----------------------------------------------------|

A|----------------------------------------------------|

E|----------------------------------------------------|

 

GUITAR 3:

 

e|----------16--16--18--18--20--20--18--16----------------------|

B|--18--18----------------------------------18--18--18--18--18--|

G|--------------------------------------------------------------|

D|--------------------------------------------------------------|

A|--------------------------------------------------------------|

E|--------------------------------------------------------------|

 

GUITAR 1:

 

e|--1--1--1--1--1---6--6--6--6--6--|

B|--1--1--1--1--1---8--8--8--8--8--|

G|--1--1--1--1--1---8--8--8--8--8--|

D|--3--3--3--3--3---8--8--8--8--8--|

A|--3--3--3--3--3---6--6--6--6--6--|

E|--1--1--1--1--1------------------|

 

GUITAR 2:

 

e|--------------------------11---------------|

B|------11------11------11------13-----------|

G|--13------13------13---------------10--13--|

D|-------------------------------------------|

A|-------------------------------------------|

E|-------------------------------------------|

 

GUITAR 3:

 

e|----------16--16--18--18--20--20--18--16----------------------|

B|--18--18----------------------------------18--18--18--18--18--|

G|--------------------------------------------------------------|

D|--------------------------------------------------------------|

A|--------------------------------------------------------------|

E|--------------------------------------------------------------|

 

GUITAR 1:

 

e|------------------3--3--3--3--3---4--4--4--4--4---3--3--3--3--3--|

B|--6--6--6--6--6---4--4--4--4--4---6--6--6--6--6---4--4--4--4--4--|

G|--6--6--6--6--6---5--5--5--5--5---6--6--6--6--6---5--5--5--5--5--|

D|--6--6--6--6--6---5--5--5--5--5---6--6--6--6--6---5--5--5--5--5--|

A|------------------3--3--3--3--3---4--4--4--4--4---3--3--3--3--3--|

E|--6--6--6--6--6--------------------------------------------------|

 

GUITAR 2:

 

e|-------------------------------------------------------------------|

B|--11------11--13--11-------------------------------------------11--|

G|------13--------------13--10-----------10------10------10--13------|

D|-------------------------------13--13------13------13--------------|

A|-------------------------------------------------------------------|

E|-------------------------------------------------------------------|

 

GUITAR 3:

 

e|--------16-16-18-18-20-20-18-16------------------16-----16----16----18-16-18-16-18-16--|

B|--18-18--------------------------18-18-18-18-18------18----18----18--------------------|

G|---------------------------------------------------------------------------------------|

D|---------------------------------------------------------------------------------------|

A|---------------------------------------------------------------------------------------|

E|---------------------------------------------------------------------------------------|

 

GUITAR 1:

 

e|--4--4--4--4--4---3--3--3--3--3--|

B|--6--6--6--6--6---4--4--4--4--4--|

G|--6--6--6--6--6---5--5--5--5--5--|

D|--6--6--6--6--6---5--5--5--5--5--|

A|--4--4--4--4--4---3--3--3--3--3--|

E|---------------------------------|

 

GUITAR 2:

 

e|---------------------------------------------------|

B|--13--11-------11------11------11--13-------13--11-|

G|-----------13------13------13----------10----------|

D|---------------------------------------------------|

A|---------------------------------------------------|

E|---------------------------------------------------|

 

GUITAR 3:

 

e|----------16--16--18--18--20--20--18--16----------------------|

B|--18--18----------------------------------18--18--18--18--18--|

G|--------------------------------------------------------------|

D|--------------------------------------------------------------|

A|--------------------------------------------------------------|

E|--------------------------------------------------------------|

 

GUITAR 1:

 

e|--1--1--1--1--1---6--6--6--6--6--|

B|--1--1--1--1--1---8--8--8--8--8--|

G|--1--1--1--1--1---8--8--8--8--8--|

D|--3--3--3--3--3---8--8--8--8--8--|

A|--3--3--3--3--3---6--6--6--6--6--|

E|--1--1--1--1--1------------------|

 

GUITAR 2:

 

e|--------------------------11---------------|

B|------11------11------11------13-----------|

G|--13------13------13-------------------10--|

D|-----------------------------------13------|

A|-------------------------------------------|

E|-------------------------------------------|

 

GUITAR 3:

 

e|----------16--16--18--18--20--20--18--16----------------------|

B|--18--18----------------------------------18--18--18--18--18--|

G|--------------------------------------------------------------|

D|--------------------------------------------------------------|

A|--------------------------------------------------------------|

E|--------------------------------------------------------------|

 

GUITAR 1:

 

e|------------------3--3--3--3--3--|

B|--6--6--6--6--6---4--4--4--4--4--|

G|--6--6--6--6--6---5--5--5--5--5--|

D|--6--6--6--6--6---5--5--5--5--5--|

A|------------------3--3--3--3--3--|

E|--6--6--6--6--6------------------|

 

GUITAR 2:

 

e|------------------------------------------------|

B|------11---------------11--13--11-------11--13--|

G|--13------13-------10---------------13----------|

D|---------------13-------------------------------|

A|------------------------------------------------|

E|------------------------------------------------|

 

GUITAR 3:

 

e|--16------16------16------18--16--18--16--18--16--|

B|------18------18------18--------------------------|

G|--------------------------------------------------|

D|--------------------------------------------------|

A|--------------------------------------------------|

E|--------------------------------------------------|

 

GUITAR 1:

 

e|--4--4--4--4--4---6--6--6--6--6--|

B|--6--6--6--6--6---8--8--8--8--8--|

G|--6--6--6--6--6---8--8--8--8--8--|

D|--6--6--6--6--6---8--8--8--8--8--|

A|--4--4--4--4--4---6--6--6--6--6--|

E|---------------------------------|

 

GUITAR 2:

 

e|--11--------------11--------------------------------|

B|------13--11----------13--11------11---13-p-11------|

G|--------------13--------------13----------------13--|

D|----------------------------------------------------|

A|----------------------------------------------------|

E|----------------------------------------------------|

 

GUITAR 3:

 

e|--18-/-20--20--20--18-/-20--20--20---20-b--20-b--20-b--20-b--20-b--20-b--20-b-r--|

B|---------------------------------------------------------------------------------|

G|---------------------------------------------------------------------------------|

D|---------------------------------------------------------------------------------|

A|---------------------------------------------------------------------------------|

E|---------------------------------------------------------------------------------|

 

 

Outro:

 

GUITAR 1:

 

e|--4--4--4--4--4---3--3---6--6---8---8---8---8---8----6--6--6--6--6--|

B|--6--6--6--6--6---4--4---8--8---9---9---9---9---9----8--8--8--8--8--|

G|--6--6--6--6--6---5--5---8--8---10--10--10--10--10---8--8--8--8--8--|

D|--6--6--6--6--6---5--5---8--8---10--10--10--10--10---8--8--8--8--8--|

A|--4--4--4--4--4---3--3---6--6---8---8---8---8---8----6--6--6--6--6--|

E|--------------------------------------------------------------------|

 

GUITAR 3:

 

e|----------13---------------------------------------------13-------------------------------------|

B|----------13---------------------------------------------13-------------------------------------|

G|--------------15--15-b--15--13------------------13-----------15-b--15--13-----------13--13--13--|

D|--15--15------------------------15--15--13--15------15---------------------15--15---------------|

A|------------------------------------------------------------------------------------------------|

E|------------------------------------------------------------------------------------------------|

 

GUITAR 1:

 

e|--4--4--4--4--4---3--3---8----------9--11---8----------9--11--|

B|--6--6--6--6--6---4--4---9---9--11----------9---9--11---------|

G|--6--6--6--6--6---5--5---10-----------------10----------------|

D|--6--6--6--6--6---5--5---10-----------------10----------------|

A|--4--4--4--4--4---3--3---8------------------8-----------------|

E|--------------------------------------------------------------|

 

GUITAR 3:

 

e|--13--13--13--13---16--16--16--16---18--18----------------16--18---------------16--18--|

B|--13--13--13--13---16--16--16--16---18--18----18--16--18-----------18--16--18----------|

G|----------------------------------------------17-------------------17------------------|

D|---------------------------------------------------------------------------------------|

A|---------------------------------------------------------------------------------------|

E|---------------------------------------------------------------------------------------|

 

GUITAR 1:

 

e|--8----------9--11---9---9---9---9---9---9---9---9----8---|

B|--9---9--11----------11--11--11--11--11--11--11--11---9---|

G|--10-----------------11--11--11--11--11--11--11--11---10--|

D|--10-----------------11--11--11--11--11--11--11--11---10--|

A|--8------------------9---9---9---9---9---9---9---9----8---|

E|----------------------------------------------------------|

 

GUITAR 3:

 

e|--------------16--18----------------------------------------|

B|--18--16--18-----------19--19--19--19--19--19--19--19---18--|

G|--17-------------------18--18--18--18--18--18--18--18---17--|

D|------------------------------------------------------------|

A|------------------------------------------------------------|

E|------------------------------------------------------------|

©2015 by Fefe - Tron544

Sigueme en:

  • YouTube - White Circle
  • Facebook - White Circle
  • Instagram - White Circle
  • Twitter - White Circle
This site was designed with the
.com
website builder. Create your website today.
Start Now