DATE A LIVE

DATE A LIVE

TABS ~ By Fefe (Tron544)

 

Intro:

 

GUITAR 1:

e|-------------------------------------|

B|-------------------------------------|

G|-------------------------------------|

D|--7--5--8--7--5--7--7--5--8--7--5--7-|

A|--5--5--5--5--5--5--5--5--5--5--5--5-|

E|-------------------------------------|

 

GUITAR 2:

e|-----------------------------------------------|

B|-----------------------------------------------|

G|--10--9--12--10--9-------10--9--12--10--9--10--|

D|--------------------10-------------------------|

A|-----------------------------------------------|

E|-----------------------------------------------|

GUITAR 1:

e|-------------------------------------|

B|-------------------------------------|

G|-------------------------------------|

D|-7--5--8--7--5--7--7--5--8--7--5--7--|

A|-------------------3--3--3--3--3--3--|

E|-6--6--6--6--6--6--------------------|

 

GUITAR 2:

e|---------------------------------------------|

B|-----------------------10--8--11--10--8--10--|

G|-10--9--12--10--9----------------------------|

D|-------------------10------------------------|

A|---------------------------------------------|

E|---------------------------------------------|

GUITAR 1:

e|--------------------------------------------------------------------------|

B|--------------------------------------------------------------------------|

G|--------------------------------------------------------------------------|

D|--7--5--8--7--5--7--7--5--8--7--5--7--7--5--8--7--5--7--7--5--8--7--5--7--|

A|--5--5--5--5--5--5--5--5--5--5--5--5--------------------3--3--3--3--3--3--|

E|--------------------------------------6--6--6--6--6--6--------------------|

 

GUITAR 2:

e|--------------------------------------------------------------------------------------------|

B|----------------------------------------------------------------------10--8--11--10--8--10--|

G|--10--9--12--10--9-------10--9--12--10--9--10---10--9--12--10--9----------------------------|

D|--------------------10--------------------------------------------10------------------------|

A|--------------------------------------------------------------------------------------------|

E|--------------------------------------------------------------------------------------------|

 

GUITAR 1:

 

e|-----------------------------------------------------------------------------|

B|-----------------------------------------------------------------------------|

G|--7--7--7--7--7--7---7--7--7--7--7--7----------------------------------------|

D|--7--7--7--7--7--7---7--7--7--7--7--7---8--8--8--8--8--8---8--8--8--8--8--8--|

A|--5--5--5--5--5--5---5--5--5--5--5--5---8--8--8--8--8--8---8--8--8--8--8--8--|

E|----------------------------------------6--6--6--6--6--6---6--6--6--6--6--6--|

 

GUITAR 2:

 

e|-----------------------------------------------------------------|

B|-----------------------------------------------------------------|

G|--10--9--10--12---10--9--10--12---10--9--10--12---10--9----------|

D|---------------------------------------------------------12--10--|

A|-----------------------------------------------------------------|

E|-----------------------------------------------------------------|

 

GUITAR 3:

 

e|--------------------------------|

B|----------------------------11--|

G|--10----10----10----10----------|

D|------------------------10------|

A|--------------------------------|

E|--------------------------------|

 

GUITAR 1:

 

e|-----------------------------------------------------------------------------|---------------|

B|-----------------------------------------------------------------------------|---------------|

G|----------------------------------------5--5--5--5--5--5---5--5--5--5--5--5--|--3--3---5--5--|

D|--3--3--3--3--3--3---3--3--3--3--3--3---5--5--5--5--5--5---5--5--5--5--5--5--|--3--3---5--5--|

A|--3--3--3--3--3--3---3--3--3--3--3--3---3--3--3--3--3--3---3--3--3--3--3--3--|--1--1---3--3--|

E|--1--1--1--1--1--1---1--1--1--1--1--1----------------------------------------|---------------|

 

GUITAR 2:

 

e|------------------------------------------------------|----------------------|

B|--10--8--10--11---10--8--10--11---10---8--------------|----------------------|

G|-------------------------------------------9--10--12--|--7--10--9--7--10--9--|

D|------------------------------------------------------|----------------------|

A|------------------------------------------------------|----------------------|

E|------------------------------------------------------|----------------------|

 

GUITAR 3:

 

e|----------------------------------|

B|--10----10----10---8--------------|

G|-----------------------9--10--12--|

D|----------------------------------|

A|----------------------------------|

E|----------------------------------|

 

 

Verse/Estrofa:

 

GUITAR 1:

 

e|--5--|--1------1--|

B|--6--|--1------1--|

G|--7--|--3------2--|

D|--7--|--3------3--|

A|--5--|--1------3--|

E|-----|---------1--|

 

GUITAR 2:

 

e|--------------------------------------|---------------------------------------------|

B|---------10--8------------------------|---------10--8-------------11--10--8---------|

G|--7--10---------10--9------9--10--10--|--7--10---------10--9-----------------10--9--|

D|-----------------------10-------------|-----------------------10--------------------|

A|--------------------------------------|---------------------------------------------|

E|--------------------------------------|---------------------------------------------|

 

GUITAR 3:

 

e|----------------|--------------------|

B|--10--8--10-----|--11--10--8---------|

G|-------------7--|-------------10--9--|

D|----------------|--------------------|

A|----------------|--------------------|

E|----------------|--------------------|

 

GUITAR 1:

 

e|------------------------------|----------------------------------------|

B|------------------------------|----------------------------------------|

G|------------------------------|---------------------------5---5--5--5--|

D|--------7--5------------7--5--|--------7--7------------7------5--5--5--|

A|--5--8------------5--8--------|--5--8------------5--8---------3--3--3--|

E|------------------------------|----------------------------------------|

 

GUITAR 2:

 

e|--------------------------------------|-------------------------------8---------|

B|---------10--8------------------------|---------10--8-------------10-----8--10--|

G|--7--10---------10--9------9--10--10--|--7--10---------10--9--------------------|

D|-----------------------10-------------|-----------------------10----------------|

A|--------------------------------------|-----------------------------------------|

E|--------------------------------------|-----------------------------------------|

 

GUITAR 3:

 

e|----------------|------8---------|

B|--10--8--10-----|--10-----8--10--|

G|-------------7--|----------------|

D|----------------|----------------|

A|----------------|----------------|

E|----------------|----------------|

Date A Live - Tron544
00:00 / 00:00
DONATE%20BUTTON%20(EN)_edited.png

Pre-Chorus/Pre-Estribillo:

 

GUITAR 1:

 

e|------------------------|-------------------------------------|

B|------------------------|-------------------------------------|

G|--8--8--8------8--8--8--|---------------7--7---7--7--7--7--7--|

D|--8--8--8------8--8--8--|--3--3--3------7--7---7--7--7--7--7--|

A|--6--6--6------6--6--6--|--3--3--3------5--5---5--5--5--5--5--|

E|------------------------|--1--1--1----------------------------|

 

GUITAR 2:

 

e|------------------------------------------------|------------------------------------10--10--10--10--10--|

B|--11--11--11--11--10--8--10------11--10--8------|--11--11--11--11--10--8----------8----------------------|

G|-----------------------------10-------------10--|-------------------------10--11-------------------------|

D|------------------------------------------------|--------------------------------------------------------|

A|------------------------------------------------|--------------------------------------------------------|

E|------------------------------------------------|--------------------------------------------------------|

 

GUITAR 3:

 

e|-----------------------------------|-------------------------10--10--10--10--10--|

B|--11----11----11----11--10--8------|--11----11------------8----------------------|

G|-------------------------------10--|--------------10--11-------------------------|

D|-----------------------------------|---------------------------------------------|

A|-----------------------------------|---------------------------------------------|

E|-----------------------------------|---------------------------------------------|

 

 

Chorus/Estribillo:

 

GUITAR 1:

 

e|-----------------------------------------------------------------|

B|-----------------------------------------------------------------|

G|--8--8--8--8--8--------------------------------------------------|

D|--8--8--8--8--8---3--3--3--3--3---5--5--5--5--5---5--5--5--5--5--|

A|--6--6--6--6--6---3--3--3--3--3---5--5--5--5--5---5--5--5--5--5--|

E|------------------1--1--1--1--1---3--3--3--3--3---3--3--3--3--3--|

 

GUITAR 2:

 

e|------------|---------------------------------------------------------------8--10---------------|

B|--------11--|--10--8--------------11--10--8--------------11--10--8--10--11-------------------8--|

G|--7--7------|---------7--7--7--7-------------7--7--7--7----------------------------10----10-----|

D|------------|-----------------------------------------------------------------------------------|

A|------------|-----------------------------------------------------------------------------------|

E|------------|-----------------------------------------------------------------------------------|

 

GUITAR 3:

 

e|--10----8----------------------------|

B|-------------11--10----------8---10--|

G|---------------------11--------------|

D|-------------------------------------|

A|-------------------------------------|

E|-------------------------------------|

 

GUITAR 1:

 

e|------------------------------------------------------------------|

B|------------------------------------------------------------------|

G|--8--8--8--8--8-----------------------------------5--5------------|

D|--8--8--8--8--8---3--3--3--3--3---5--5--5--5--5---5--5---5--5--5--|

A|--6--6--6--6--6---3--3--3--3--3---5--5--5--5--5---3--3---5--5--5--|

E|------------------1--1--1--1--1---3--3--3--3--3----------3--3--3--|

 

GUITAR 2:

 

e|--10--10--10--8----------------------------------------------|

B|-----------------11--10------10---10--11--10--8----------11--|

G|-------------------------10------------------------7--7------|

D|-------------------------------------------------------------|

A|-------------------------------------------------------------|

E|-------------------------------------------------------------|

 

GUITAR 3:

 

e|--------8----10---------------8----------|

B|--11---------------8--10--11-----11--10--|

G|-----------------------------------------|

D|-----------------------------------------|

A|-----------------------------------------|

E|-----------------------------------------|

 

GUITAR 1:

 

e|-----------------------------------------------------------------|

B|-----------------------------------------------------------------|

G|--8--8--8--8--8--------------------------------------------------|

D|--8--8--8--8--8---3--3--3--3--3---5--5--5--5--5---5--5--5--5--5--|

A|--6--6--6--6--6---3--3--3--3--3---5--5--5--5--5---5--5--5--5--5--|

E|------------------1--1--1--1--1---3--3--3--3--3---3--3--3--3--3--|

 

GUITAR 2:

 

e|---------------------------------------------------------------8--10--10-------|

B|--10--8--------------11--10--8--------------11--10--8--10--11--------------10--|

G|---------7--7--7--7-------------7--7--7--7-------------------------------------|

D|-------------------------------------------------------------------------------|

A|-------------------------------------------------------------------------------|

E|-------------------------------------------------------------------------------|

 

GUITAR 3:

 

e|-------------13--10----8-----------------------|

B|--8----10-----------------11--10---11--10------|

G|-------------------------------------------10--|

D|-----------------------------------------------|

A|-----------------------------------------------|

E|-----------------------------------------------|

 

GUITAR 1:

 

e|------------------------------------------|

B|------------------------------------------|

G|-----------------------------8------------|

D|--6--6--6--6--6--6---5---3---8------3--3--|

A|--6--6--6--6--6--6---5---3---6------3--3--|

E|--4--4--4--4--4--4---3---1----------1--1--|

 

GUITAR 2:

 

e|----------10--8---------------------|

B|--11-------------11--10--11--10--8--|

G|------------------------------------|

D|------------------------------------|

A|------------------------------------|

E|------------------------------------|

 

GUITAR 3:

 

e|-----------------------------------------------------|

B|---------8------8--10--11--10--8---------------------|

G|--8-------------------------------10--8------10--10--|

D|-----------------------------------------------------|

A|-----------------------------------------------------|

E|-----------------------------------------------------|

 

 

Outro:

 

GUITAR 1:

 

e|-----------------------------------------------------------------------------|

B|-----------------------------------------------------------------------------|

G|--7--7--7--7--7--7---7--7--7--7--7--7----------------------------------------|

D|--7--7--7--7--7--7---7--7--7--7--7--7---8--8--8--8--8--8---8--8--8--8--8--8--|

A|--5--5--5--5--5--5---5--5--5--5--5--5---8--8--8--8--8--8---8--8--8--8--8--8--|

E|----------------------------------------6--6--6--6--6--6---6--6--6--6--6--6--|

 

GUITAR 2:

 

e|-----------------------------------------------------------------|

B|-----------------------------------------------------------------|

G|--10--9--10--12---10--9--10--12---10--9--10--12---10--9----------|

D|---------------------------------------------------------12--10--|

A|-----------------------------------------------------------------|

E|-----------------------------------------------------------------|

 

GUITAR 3:

 

e|--------------------------------|

B|----------------------------11--|

G|--10----10----10----10----------|

D|------------------------10------|

A|--------------------------------|

E|--------------------------------|

 

GUITAR 1:

 

e|-----------------------------------------------------------------------------|

B|-----------------------------------------------------------------------------|

G|----------------------------------------5--5--5--5--5--5---5--5--5--5--5--5--|

D|--3--3--3--3--3--3---3--3--3--3--3--3---5--5--5--5--5--5---5--5--5--5--5--5--|

A|--3--3--3--3--3--3---3--3--3--3--3--3---3--3--3--3--3--3---3--3--3--3--3--3--|

E|--1--1--1--1--1--1---1--1--1--1--1--1----------------------------------------|

 

GUITAR 2:

 

e|------------------------------------------------------|

B|--10--8--10--11---10--8--10--11---10---8--------------|

G|-------------------------------------------9--10--12--|

D|------------------------------------------------------|

A|------------------------------------------------------|

E|------------------------------------------------------|

 

GUITAR 3:

 

e|----------------------------------|

B|--10----10----10---8--------------|

G|-----------------------9--10--12--|

D|----------------------------------|

A|----------------------------------|

E|----------------------------------|

©2015 by Fefe - Tron544

Sigueme en:

  • YouTube - White Circle
  • Facebook - White Circle
  • Instagram - White Circle
  • Twitter - White Circle
This site was designed with the
.com
website builder. Create your website today.
Start Now