DATABASE

LOG HORIZON

TABS ~ By Fefe (Tron544)

 

Intro:

 

e|--------------------------------------------------------------------|

B|--------------------------------------------------------------------|

G|--------------------------------------------------------------------|

D|-----------------------3--2-----------------------------5--3--2-----|

A|--5--3--5-----------0--------5--3--5--3--5-----------0-----------3--|

D|-----------0--3--5--------------------------0--3--5-----------------|

 

e|--------------------------------------------------------------------|

B|--------------------------------------------------------------------|

G|--------------------------------------------------------------------|

D|-----------------------3--2-----------------------------5--3--2-----|

A|--5--3--5-----------0--------5--3--5--3--5-----------0-----------3--|

D|-----------0--3--5--------------------------0--3--5-----------------|

 

e|--------------------------------------------------------------------|

B|--------------------------------------------------------------------|

G|--------------------------------------------------------------------|

D|-----------------------3--2-----------------------------5--3--2-----|

A|--5--3--5-----------0--------5--3--5--3--5-----------0-----------3--|

D|-----------0--3--5--------------------------0--3--5-----------------|

 

e|-----------------------------------------------------------|

B|-----------------------------------------------------------|

G|-----------------------------------------------------------|

D|-----------------------3--2--------------------------------|

A|--5--3--5-----------0--------5--3--5--3--5-----------0--3--|

D|-----------0--3--5--------------------------0--3--5--------|

 

 

Verse/Estrofa:

 

e|--------------------------------------------------------|

B|--------------------------------------------------------|

G|--------------------------------------------------------|

D|--0--0----0--5--3--0---0--0---0--0---0--5--3--3---3--4--|

A|--0--0----0--5--3--0---0--0---0--0---0--5--3--3---3-----|

D|--0--0----0--5--3--0---0--0---0--0---0--5--3--3---3-----|

 

e|----------------------------------------------------------|

B|----------------------------------------------------------|

G|------------------------------------7--7------------------|

D|--0--0----0--5--3--0---0--0---0--0--7--7--0--5--3--3---3--|

A|--0--0----0--5--3--0---0--0---0--0--5--5--0--5--3--3---3--|

D|--0--0----0--5--3--0---0--0---0--0--------0--5--3--3---3--|

 

 

Pre-Chorus/Pre-Estribillo:

 

GUITAR 1:

 

e|--------------------------------------------------------------------------------------|

B|--------------------------------------------------------------------------------------|

G|--------7--7--7-------------------------------------7--7--7---------------------------|

D|--0--0--7--7--7--(0)-(5)-(0)-(3)-(0)-(2)-(3)--0--0--7--7--7--(0)-(5)-(3)-(3)--(3)--4--|

A|--0--0--5--5--5--(0)-(5)-(0)-(3)-(0)-(2)-(3)--0--0--5--5--5--(0)-(5)-(3)-(3)--(3)-----|

D|--0--0-----------(0)-(5)-(0)-(3)-(0)-(2)-(3)--0--0-----------(0)-(5)-(3)-(3)--(3)-----|

 

GUITAR 2:

 

e|-----------|------------------------------------------------------------------------|

B|-----------|------------------------------------------------------------------------|

G|--7--7--7--|--7---7---7---7--7---5------7--7--7--7---7---7---5------7--7---7--7--7--|

D|-----------|------------------------7---------------------------7-------------------|

A|-----------|------------------------------------------------------------------------|

D|-----------|------------------------------------------------------------------------|

 

GUITAR 1:

 

e|--------------------------------------------------------------------------------------|

B|--------------------------------------------------------------------------------------|

G|--------7--7--7-------------------------------------7--7--7---------------------------|

D|--0--0--7--7--7--(0)-(5)-(0)-(3)-(0)-(2)-(3)--0--0--7--7--7--(0)-(5)-(3)-(3)--(3)--4--|

A|--0--0--5--5--5--(0)-(5)-(0)-(3)-(0)-(2)-(3)--0--0--5--5--5--(0)-(5)-(3)-(3)--(3)-----|

D|--0--0-----------(0)-(5)-(0)-(3)-(0)-(2)-(3)--0--0-----------(0)-(5)-(3)-(3)--(3)-----|

 

GUITAR 2:

 

e|------------------------------------------------------------------------|

B|----------------------------6--6--6--6---6---6---6--6----------6--6--6--|

G|--7---7---7---7--7---5----------------------------------7--5------------|

D|------------------------7-----------------------------------------------|

A|------------------------------------------------------------------------|

D|------------------------------------------------------------------------|

 

GUITAR 1:

 

e|---------------------------------------------------|

B|---------------------------------------------------|

G|---------------------------------------------------|

D|--3--3--3--3--3--3--3--3---5--5--5--5--5--5--5--5--|

A|--3--3--3--3--3--3--3--3---5--5--5--5--5--5--5--5--|

D|--3--3--3--3--3--3--3--3---5--5--5--5--5--5--5--5--|

 

GUITAR 2:

 

e|----------------------------------------------------------|

B|--6---6---6---6--6---------6--6---6--6--6--6--------------|

G|--------------------7--5-----------------------7---5------|

D|-------------------------------------------------------7--|

A|----------------------------------------------------------|

D|----------------------------------------------------------|

database - Tron544
00:00 / 00:00
DONATE%20BUTTON%20(EN)_edited.png

Chorus/Estribillo:

 

GUITAR 1:

 

e|---------------------------------------------------|

B|---------------------------------------------------|

G|--7--7--7--7--7--7--7--7---------------------------|

D|--7--7--7--7--7--7--7--7---3--3--3--3--3--3--3--3--|

A|--5--5--5--5--5--5--5--5---3--3--3--3--3--3--3--3--|

D|---------------------------3--3--3--3--3--3--3--3--|

 

GUITAR 2:

 

e|------------------------------------------------------------------|

B|-----------------------------------------------6------------------|

G|--7--7--7---7--7--7---5--7--5--7--5--7--7--7------7---7--5--7--5--|

D|------------------------------------------------------------------|

A|------------------------------------------------------------------|

D|------------------------------------------------------------------|

 

GUITAR 1:

 

e|---------------------------------------------------|

B|---------------------------------------------------|

G|---------------------------5--5--5--5--5--5--5--5--|

D|--5--5--5--5--5--5--5--5---5--5--5--5--5--5--5--5--|

A|--5--5--5--5--5--5--5--5---3--3--3--3--3--3--3--3--|

D|--5--5--5--5--5--5--5--5---------------------------|

 

GUITAR 2:

 

e|-------------------------------------------------------|

B|--6------------------------6---------------------------|

G|-----7--5--------7--7---7-----7--5--------7--7---7--5--|

D|-----------7------------------------7------------------|

A|--------------8------------------------8---------------|

D|-------------------------------------------------------|

 

GUITAR 1:

 

e|---------------------------------------------------------------------------------------------------|

B|---------------------------------------------------------------------------------------------------|

G|--3--3--3--3--3--3--3--3---------------------------------------------------------------------------|

D|--3--3--3--3--3--3--3--3---3--3--3--3--3--3--3--3---5--5--5--5--5--5--5--5---0---3---2---3---5--7--|

A|--1--1--1--1--1--1--1--1---3--3--3--3--3--3--3--3---5--5--5--5--5--5--5--5---0---3---2---3---5--7--|

D|---------------------------3--3--3--3--3--3--3--3---5--5--5--5--5--5--5--5---0---3---2---3---5--7--|

 

GUITAR 2:

 

e|----------------------------------------------------------------------------------------------------------|

B|--------------------------------------------6-----------------6-----------------------6-------------------|

G|--7--7--7--7--7--7--5--7--5--7--5--7--7--7-----7--7--5--7--5-----7--5--------7--7--7-----7--5--------7--7-|

D|-----------------------------------------------------------------------7-----------------------7----------|

A|--------------------------------------------------------------------------8-----------------------8-------|

D|----------------------------------------------------------------------------------------------------------|

 

GUITAR 1:

 

e|-------------------------------------------------------------------------------------------------|

B|-------------------------------------------------------------------------------------------------|

G|--7--7--7--7--7--7--7--7-------------------------------------------------------------------------|

D|--7--7--7--7--7--7--7--7---3--3--3--3--3--3--3--3---5--5--5--5--5--5--5--5------0--0---0---0--0--|

A|--5--5--5--5--5--5--5--5---3--3--3--3--3--3--3--3---5--5--5--5--5--5--5--5------0--0---0---0--0--|

D|---------------------------3--3--3--3--3--3--3--3---5--5--5--5--5--5--5--5------0--0---0---0--0--|

 

GUITAR 2:

 

e|----------------------------------------------------------------------------------------------|

B|-------------------------------------------------------------------------------6--------------|

G|--7--7--7---7--7--7---5--7--5--7--5--7--7--7------7--7--7---7--7--7---5--7--5------7-------7--|

D|---------------------------------------------------------------------------------------7------|

A|----------------------------------------------------------------------------------------------|

D|----------------------------------------------------------------------------------------------|

©2015 by Fefe - Tron544

Sigueme en:

  • YouTube - White Circle
  • Facebook - White Circle
  • Instagram - White Circle
  • Twitter - White Circle
This site was designed with the
.com
website builder. Create your website today.
Start Now