~ DANGO DAIKAZOKU ~

TABLATURAS ~ By Fefe - Tron544

 

Intro:

 

e|---------------------------8----------|----------------------------|

B|---------9----9--11----11-------9-----|---------9----9--11--11--9--|

G|--10--8----------------------------8--|--10--8---------------------|

D|--------------------------------------|----------------------------|

A|--------------------------------------|----------------------------|

E|--------------------------------------|----------------------------|

 

 

Verse/Estrofa:

 

e|---------------------------8--------|---------------------------8------|

B|---------9--9----11--11-------9-----|---------9----9--11----11-----11--|

G|--10--8--------------------------8--|--10--8---------------------------|

D|------------------------------------|----------------------------------|

A|------------------------------------|----------------------------------|

E|------------------------------------|----------------------------------|

 

e|---------------------------8----------|------------------------|

B|---------9----9--11----11-------9-----|---------9----9--11--9--|

G|--10--8----------------------------8--|--10--8-----------------|

D|--------------------------------------|------------------------|

A|--------------------------------------|------------------------|

E|--------------------------------------|------------------------|

 

 

Pre-Chorus/Pre-Estribillo:

 

e|--9--8-----------------------------------|--9--8-----------------------|

B|--------9------9--11------9-----------9--|--------9------9--11------9--|

G|-----------10---------10-------8--10-----|-----------10---------10-----|

D|-----------------------------------------|-----------------------------|

A|-----------------------------------------|-----------------------------|

E|-----------------------------------------|-----------------------------|

 

e|--9--8-----------------------------------|------------------|

B|--------9------9--11------9-----------9--|-------9----------|

G|-----------10---------10-------8--10-----|--8---------------|

D|-----------------------------------------|----------11--11--|

A|-----------------------------------------|------------------|

E|-----------------------------------------|------------------|

 

 

Chorus/Estribillo:

 

e|---------------|----------------------8--11------8--|-----------------------------------11--8--|

B|--------9--11--|--11--9--------9--11---------11-----|--9-----9--11--11--9--------11--9---------|

G|-----8---------|---------10-------------------------|-----8----------------10------------------|

D|--8------------|------------------------------------|------------------------------------------|

A|---------------|------------------------------------|------------------------------------------|

E|---------------|------------------------------------|------------------------------------------|

 

e|---------------|----------------------8--11------8--|------------------------------|

B|--------9--11--|--11--9--------9--11---------11-----|--9--8------------8--9--8--9--|

G|-----8---------|---------10-------------------------|--------10----10--------------|

D|--8------------|------------------------------------|------------------------------|

A|---------------|------------------------------------|------------------------------|

E|---------------|------------------------------------|------------------------------|

 

e|---------------|----------------------8--11------8--|-----------------------------------11--8--|

B|--------9--11--|--11--9--------9--11---------11-----|--9-----9--11--11--9--------11--9---------|

G|-----8---------|---------10-------------------------|-----8----------------10------------------|

D|--8------------|------------------------------------|------------------------------------------|

A|---------------|------------------------------------|------------------------------------------|

E|---------------|------------------------------------|------------------------------------------|

 

e|---------------|----------------------8--11------8--|----------------------------|

B|--------9--11--|--11--9--------9--11---------11-----|--9--8----------8--9--8--9--|

G|-----8---------|---------10-------------------------|--------10------------------|

D|--8------------|------------------------------------|----------------------------|

A|---------------|------------------------------------|----------------------------|

E|---------------|------------------------------------|----------------------------|

 

Dango Daikazoku - Tron544
00:00 / 00:00

©2019 by Fefe - Tron544

Sigueme en:

  • YouTube - White Circle
  • Facebook - White Circle
  • Instagram - White Circle
  • Twitter - White Circle
This site was designed with the
.com
website builder. Create your website today.
Start Now