DAN DAN KOKORO HIKARETEKU

DRAGON BALL GT

CHORDS ~ By Fefe (Tron544)

 

Chords used/Acordes utilizados:

Am: x.0.2.2.1.0  -  Ab: 4.6.6.5.4.4
C: x.3.2.0.1.0 or x.3.5.5.5.3  -  Csus4: x.3.5.5.6.3  -  Cm: x.3.5.5.4.3
Dm: x.x.0.2.3.1
Em: 0.2.2.0.0.0  -  Eb: x.6.8.8.8.x
Fm: 1.3.3.1.1.1
G: 3.2.0.0.3.3  -  Gsus4: 3.5.5.5.3.3  -  Gm: 3.5.5.3.3.3

G/B: x.2.0.0.3.3
Bb: x.1.3.3.3.1 or 6.8.8.7.6.6

%: Same as the previous measure/Lo mismo que el compas anterior

 

| Gsus4 | % |

 


   C                G/B
   Dan dan kokoro hikareteku
   Am            Em
   Sono mabushii egao ni
F         Em Am      G
   Hatenai yami kara tobidasoo
           Ab   Bb   C
   HOLD MY HAND

 


Ab           Bb     Gm
   Kimi to deatta toki
             Cm            Fm
   Kodomo no koro taisetsu ni
         Dm   G      Cm         Eb
   Omotteta basho o omoidashitanda
        Ab                Gm
   Boku to odotte kurenai ka
             Cm              Fm
   Hikari to kage no WINDING ROAD
       Dm    G        Cm        Eb
   Ima de mo aitsu ni muchuu na no?

 


           Ab                       Cm
   Sukoshi dake furimukitaku naru youna toki mo aru kedo
         Cm       Fm          Bb         Gsus4
   Ai to yuuki to hokori o motte tatakau yo

 


   C                G/B
   Dan dan kokoro hikareteku
   Am              Em
   Kono hoshi no kibou no kakera
F            Em Am   Dm          Em  G
   Kitto daremo ga eien o te ni iretai
   C                 G/B
   Zen zen ki ni shinai furi shite mo
   Am             Em
   Hora kimi ni koi shiteru
F         Em Am      Bb      G
   Hatenai yami kara tobidasoo
             Ab   Bb   Csus4   C
   HOLD YOUR HAND

Dan Dan Kokoro Hikareteku - Tron544
00:00 / 00:00
DONATE%20BUTTON%20(EN)_edited.png

TABS ~ By Fefe (Tron544)

 

Intro:

 

e|--3--|--3--1--3--0--3-----3--|

B|--3--|-----------------3-----|

G|--4--|-----------------------|

D|--5--|-----------------------|

A|--5--|-----------------------|

E|--3--|-----------------------|

 

 

First Chorus/Primer Estribillo:

 

GUITAR 1:

 

e|----------------|-----------------|

B|----------------|-----------------|

G|--9-------------|-----------------|

D|-----12--10--9--|--10--9----------|

A|----------------|---------12--10--|

E|----------------|-----------------|

 

GUITAR 2:

 

e|-----------------------------------------|-------------------------------------|

B|----------------------10-----------------|-------------------------------------|

G|--12--12---9--10--12------12--10--9------|--9--9----------9--10--9-------------|

D|-------------------------------------12--|--------10--12------------12--10--9--|

A|-----------------------------------------|-------------------------------------|

E|-----------------------------------------|-------------------------------------|

 

GUITAR 1:

 

e|-------------------|---------------------|

B|-------------------|---------------------|

G|--9-------------9--|--10--9--------------|

D|------10----12-----|---------12--10--12--|

A|-------------------|---------------------|

E|-------------------|---------------------|

 

GUITAR 2:

 

e|-------------------------------------|-------------------------------------|

B|---------------10--------------------|-------------------------------------|

G|-------------------12-------------9--|--10--9------------------------------|

D|----------10------------10----12-----|---------12--10--12---10--9--9-h-10--|

A|--12--12-----------------------------|-------------------------------------|

E|-------------------------------------|-------------------------------------|

 

GUITAR 1:

e|------------------------------------------------|---------------------------------------------------|

B|--9--8----------------11--9---------------------|---------------------------------------------------|

G|--------10--8--7--8----------12--10--8--10--12--|---------------------------------------------------|

D|------------------------------------------------|--(9)-(9)-(7)-(7)-(5)-(5)-(3)-(3)-(2)-(2)-(0)-(0)--|

A|------------------------------------------------|---------------------------------------------------|

E|------------------------------------------------|---------------------------------------------------|

 

 

Verse/Estrofa:

 

e|-----------------------------------|---------------------------------------|

B|-----------------------------------|---------------------------------------|

G|-----------------------------------|---------------------------------------|

D|--10--10--10--10--8------8--10--8--|-----8--8--8--8--8--------------8------|

A|---------------------11------------|--8-----------------11--10--11-----11--|

E|-----------------------------------|---------------------------------------|

 

e|--------------------------------------|------------------------------------------|

B|--------------------------------------|------------------------------------------|

G|--------------------------------------|------------------------------------------|

D|--------------------------------------|-----------------------------------8--10--|

A|-----11--11--11--11--10--8--10--8--8--|--8--8------8--8-h-10------10--11---------|

E|--8-----------------------------------|--------11--------------------------------|

 

e|-----------------------------------|-------------------------------------|

B|-----------------------------------|-------------------------------------|

G|-----------------------------------|------------7--7--8------------------|

D|--10--10--10--10--8------8--10--8--|--8--8--10------------8--------------|

A|---------------------11------------|-------------------------11--10--11--|

E|-----------------------------------|-------------------------------------|

 

e|-----------------------------|---------------------------------------|

B|-----------------------------|--8------------------------------------|

G|-----------------------------|-----10--10---10--8--7--8-----------7--|

D|--8--8-----------------------|-------------------------------10------|

A|--------11--10--10---10--10--|---------------------------------------|

E|-----------------------------|---------------------------------------|

 

 

Pre-Chorus/Pre-Estribillo:

 

e|--------------------------------------------------|-------------------------------------------------|

B|--------------------------------------------------|-------------------------------------------------|

G|--8--8----7--8--8----7--8--8--------10--8--7------|----------------------------------------------7--|

D|--------------------------------10------------10--|--8--8--------8--8--------8--8------8--8--10-----|

A|--------------------------------------------------|----------10----------10-------------------------|

E|--------------------------------------------------|-------------------------------------------------|

 

e|-------------------------------|--------------------------------------|--3--1--3--0--3-----3--|

B|-------------------------------|----------8---------------------------|-----------------3-----|

G|--7--7--8-------------8--7--8--|-------------10----10--10--8--10--12--|-----------------------|

D|-----------10-----10-----------|--10--10------------------------------|-----------------------|

A|-------------------------------|--------------------------------------|-----------------------|

E|-------------------------------|--------------------------------------|-----------------------|

Second Chorus/Segundo Estribillo:

 

GUITAR 1:

 

e|----------------|-----------------|

B|----------------|-----------------|

G|--9-------------|-----------------|

D|-----12--10--9--|--10--9----------|

A|----------------|---------12--10--|

E|----------------|-----------------|

 

GUITAR 2:

 

e|-----------------------------------------|-------------------------------------|

B|----------------------10-----------------|-------------------------------------|

G|--12--12---9--10--12------12--10--9------|--9--9----------9--10--9-------------|

D|-------------------------------------12--|--------10--12------------12--10--9--|

A|-----------------------------------------|-------------------------------------|

E|-----------------------------------------|-------------------------------------|

 

GUITAR 1:

 

e|-------------------|---------------------------------|

B|-------------------|---------------------------------|

G|--9-------------9--|--10--9--------------------------|

D|------10----12-----|---------12--10------------------|

A|-------------------|------------------------0--2--3--|

E|-------------------|---------------------3-----------|

 

GUITAR 2:

 

e|-------------------------------------|----------------------------------|

B|---------------10--------------------|----------------------------------|

G|-------------------12-------------9--|--10--9----------9----10-p-9------|

D|----------10------------10----12-----|---------12--10---------------12--|

A|--12--12-----------------------------|----------------------------------|

E|-------------------------------------|----------------------------------|

 

GUITAR 1:

 

e|----------------|-----------------|

B|----------------|-----------------|

G|--9-------------|-----------------|

D|-----12--10--9--|--10--9----------|

A|----------------|---------12--10--|

E|----------------|-----------------|

 

GUITAR 2:

 

e|-----------------------------------------|-------------------------------------|

B|----------------------10-----------------|-------------------------------------|

G|--12--12---9--10--12------12--10--9------|--9--9----------9--10--9-------------|

D|-------------------------------------12--|--------10--12------------12--10--9--|

A|-----------------------------------------|-------------------------------------|

E|-----------------------------------------|-------------------------------------|

 

GUITAR 1:

 

e|-------------------|---------------------|

B|-------------------|---------------------|

G|--9-------------9--|--10--9--------------|

D|------10----12-----|---------12--10--12--|

A|-------------------|---------------------|

E|-------------------|---------------------|

 

GUITAR 2:

 

e|-------------------------------------|-------------------------------------|

B|---------------10--------------------|-------------------------------------|

G|-------------------12-------------9--|--10--9------------------------------|

D|----------10------------10----12-----|---------12--10--12---10--9--9-h-10--|

A|--12--12-----------------------------|-------------------------------------|

E|-------------------------------------|-------------------------------------|

 

e|-------------------------------------------------------------|

B|--9--8----------------11--9----------------------------------|

G|--------10--8--7--8----------12--10--8--10--10----12--10--9--|

D|-------------------------------------------------------------|

A|-------------------------------------------------------------|

E|-------------------------------------------------------------|

©2015 by Fefe - Tron544

Sigueme en:

  • YouTube - White Circle
  • Facebook - White Circle
  • Instagram - White Circle
  • Twitter - White Circle
This site was designed with the
.com
website builder. Create your website today.
Start Now