DADDY! DADDY! DO!

KAGUYA-SAMA: LOVE IS WAR

TABS ~ By Fefe (Tron544)

 

Intro:

GUITAR (Vocals):

eb|-----|--------------------------------------------------------------|
Bb|-----|----------------------------------------------------------10--|
Gb|-----|---9-7-9-7------9-7-9-7--------5---5-7-5-7/9p7-9----7/9-9-----|
Db|--7--|-------------6------------7--7---7----------------------------|
Ab|-----|--------------------------------------------------------------|
Eb|-----|--------------------------------------------------------------|

GUITAR (Rhythm):

eb|----------------1--|---------0-----4---5------5-5-5------5-5-5--|
Bb|----------------1--|---------0-----5---5------5-5-6------6-6-6--|
Gb|----------------2--|---------1-----4---5------5-5-7------7-7-7--|
Db|----------------3--|---------2-----6---7------7-7-7------7-7-7--|
Ab|------------0-2-3--|---------2-----7---7------7-7-5------5-5-5--|
Eb|---0--2--4---------|---------0-----4---5------5-5---------------|

GUITAR (Vocals):

eb|--------------------------------------------|
Bb|-------10-----------------------------------|
Gb|---9-9-----9--7--9--7--9--7--9--7-----------|
Db|-----------------------------------10-9-10--|
Ab|--------------------------------------------|
Eb|--------------------------------------------|

GUITAR (Rhythm):

eb|----------------------------------|
Bb|-------------------------8--6-----|
Gb|-------9--7--9--7--9--7--7--7-----|
Db|----------------------------------|
Ab|-------7--5--7--5--7--5-----------|
Eb|----------------------------------|

GUITAR (Vocals):

eb|-----------------------------------------|
Bb|-----------------------------------------|
Gb|-----------------------------------------|
Db|--10\7------------------------------5-7--|
Ab|----------------------------------7------|
Eb|-----------------------------------------|

GUITAR (Rhythm):

eb|---------------------------------------------------------------------|
Bb|--#-#-5-#-#-3-5-#-5-#-#-5-#-#-3-5-#-5-#-#-5-#-#-3-5-#-5--5-#-3--3----|
Gb|--#-#-5-#-#-4-5-#-5-#-#-5-#-#-4-5-#-5-#-#-5-#-#-4-5-#-5--5-#-4--4-3--|
Db|---------------------------------------------------------------------|
Ab|---------------------------------------------------------------------|
Eb|---------------------------------------------------------------------|

 


Verse/Estrofa:

GUITAR (Vocals):

eb|-------------------------------------------------------------|
Bb|-------------------------------------------------------------|
Gb|--5-----------------------------------------------7-9--------|
Db|----7----7p5---5-5-7--7-7-9-10--9--7-----10--9-10-------5-7--|
Ab|-------------7-----------------------10---------------7------|
Eb|-------------------------------------------------------------|

GUITAR (Rhythm):

eb|---------------------------------------------------------------------|
Bb|---------------------------------------------------------5-----8--5--|
Gb|--#-#-#---#-#-----#-#-#-#-7/9-9--7-----#-#-#---#-#-----#-5-----7--7--|
Db|--#-#-#-7-#-#-5-7-#-#-#-#--------------#-#-#-7-#-#-5-7-#-5-----5--6--|
Ab|---------------------------------------------------------------------|
Eb|---------------------------------------------------------------------|

GUITAR (Vocals):

eb|--------------------------------------------------------|
Bb|--------------------------------------------------------|
Gb|--7-----------------------9-7--5--7/9-7-5---------------|
Db|----5----7p5---5-5-7--7-7-----------------7------7-7-9--|
Ab|-------------7------------------------------------------|
Eb|--------------------------------------------------------|

GUITAR (Rhythm):

eb|------------------------------------------------------------------|
Bb|-------------------------------------------------------8----------|
Gb|--#-#---#-#-----#-#-#-#-7/9-9--7---#---------------7/9---9\7-5----|
Db|--#-#-7-#-#-5-7-#-#-#-#------------#-5----6----7------------------|
Ab|------------------------------------------------------------------|
Eb|-------------------------------------3----4----5------------------|

DADDY! DADDY! DO! - Tron544
00:00 / 00:00
DONATE%20BUTTON%20(EN)_edited.png

Pre-Chorus/Pre-Estribillo:

GUITAR (Vocals):

eb|-----------------------------------------------------------|
Bb|------------------------------9----------------------------|
Gb|----------4-4-5-5/7-4----9-9----9----9-7-9-7-\-5-----------|
Db|--10-7----------------------------------------------5-5-5--|
Ab|-----------------------------------------------------------|
Eb|-----------------------------------------------------------|

GUITAR (Rhythm):

eb|-------------------------------------------------12---10-------|
Bb|----------10--------------12--------------12-----13---12-------|
Gb|-------10--------------12--------------13--------14---12-------|
Db|----10--------------12--------------14-----------14---12-------|
Ab|--8--------------10--------------11--------------12---10-------|
Eb|---------------------------------------------------------------|

GUITAR (Vocals):

eb|-------------------------------------------------------|
Bb|-------------------------------------------------------|
Gb|----9--7--5-------9--7--5------5-5-5-5--5--5--7--5--7--|
Db|--7---------5-5-7---------5----------------------------|
Ab|-------------------------------------------------------|
Eb|-------------------------------------------------------|

GUITAR (Rhythm):

eb|--8--8----------5-5--3-----1-------------------------|
Bb|--10-10--8------6-6--5-----3-------------------------|
Gb|--10-10--9------7-7--5-----3--------x-x-x-x-x-x-x-x--|
Db|--10-10--10-----7-7--5-----3--------x-x-x-x-x-x-x-x--|
Ab|--8--8---7------5-5--3-----1--------x-x-x-x-x-x-x-x--|
Eb|-----------------------------------------------------|

GUITAR (Vocals):

eb|---------------------------------------------------|
Bb|---------------------------------------8-----------|
Gb|--9-9-7-9-----9-9-7-9-----9-9--9--9--9---9-7-7--9--|
Db|---------------------------------------------------|
Ab|---------------------------------------------------|
Eb|---------------------------------------------------|

GUITAR (Rhythm):

eb|-------------------------------------------------|
Bb|----------------------------8-8--8--8--8---------|
Gb|--9-9-7-9------9-9-7-9------9-9--9--9--7---------|
Db|--9-9-7-9------9-9-7-9---------------------------|
Ab|--7-7-5-7------7-7-5-7---------------------------|
Eb|-----------0------------0------------------------|

 


Chorus/Estribillo:

GUITAR (Vocals):

eb|-----|--------------------------------------------------------------|
Bb|-----|----------------------------------------------------------10--|
Gb|-----|---9-7-9-7------9-7-9-7--------5---5-7-5-7/9p7-9----7/9-9-----|
Db|--7--|-------------6------------7--7---7----------------------------|
Ab|-----|--------------------------------------------------------------|
Eb|-----|--------------------------------------------------------------|

GUITAR (Rhythm):

eb|----------------1--|---------0-----4---5------5-5-5------5-5-5--|
Bb|----------------1--|---------0-----5---5------5-5-6------6-6-6--|
Gb|----------------2--|---------1-----4---5------5-5-7------7-7-7--|
Db|----------------3--|---------2-----6---7------7-7-7------7-7-7--|
Ab|------------0-2-3--|---------2-----7---7------7-7-5------5-5-5--|
Eb|---0--2--4---------|---------0-----4---5------5-5---------------|

GUITAR (Vocals):

eb|------------------------------------------------------------|
Bb|-------10---------------------------------------------------|
Gb|---9-9-----9-9-7--9-7-7\5---------5---5-7-5-7/9p7-9---------|
Db|-----------------------------7--7---7--------------------7--|
Ab|------------------------------------------------------------|
Eb|------------------------------------------------------------|

GUITAR (Rhythm):

eb|-------5--0----5----6---------------------1--|
Bb|-------6--0----5----6---------------------1--|
Gb|-------7--1----5----7---------------------2--|
Db|-------7--2----7----8---------------------3--|
Ab|-------5--2----7----8-----------------0-2-3--|
Eb|----------0----5----6--------0--2--4---------|

GUITAR (Vocals):

eb|-------------------------------------------------------------------------------------------------------|
Bb|----------------------------------------------------------10------10-----------------------------------|
Gb|---9-7-9-7------9-7-9-7--------5---5-7-5-7/9p7-9----7/9-9-----9-9-----9--7--9--7--9--7--9--7-----------|
Db|-------------6------------7--7---7------------------------------------------------------------10-9-10--|
Ab|-------------------------------------------------------------------------------------------------------|
Eb|-------------------------------------------------------------------------------------------------------|

GUITAR (Rhythm):

eb|---------0-----4---5------5-5-5------5-5-5---------------------------------|
Bb|---------0-----5---5------5-5-6------6-6-6------------------------8--6-----|
Gb|---------1-----4---5------5-5-7------7-7-7------9--7--9--7--9--7--7--7-----|
Db|---------2-----6---7------7-7-7------7-7-7---------------------------------|
Ab|---------2-----7---7------7-7-5------5-5-5------7--5--7--5--7--5-----------|
Eb|---------0-----4---5------5-5----------------------------------------------|

GUITAR (Vocals):

eb|---------------------|
Bb|---------------------|
Gb|---------------------|
Db|--10\7---------------|
Ab|---------------------|
Eb|---------------------|

©2015 by Fefe - Tron544

Sigueme en:

  • YouTube - White Circle
  • Facebook - White Circle
  • Instagram - White Circle
  • Twitter - White Circle
This site was designed with the
.com
website builder. Create your website today.
Start Now