~ CROSSING FIELD ~

TABLATURAS ~ By Fefe - Tron544

 

Intro:

 

GUITAR 2:

 

e|-------------------------------------------------------------|
B|--------------13------------15--15--13---10--11--10------10--|
G|--10--12--14-------10-\-9----------------------------12------|
D|-------------------------------------------------------------|
A|-------------------------------------------------------------|
E|-------------------------------------------------------------|

 

GUITAR 1:

 

e|---------------------------------|
B|---------------------------------|
G|--3------5------7----7--7--7--7--|
D|--3------5------7----7--7--7--7--|
A|--1------3------5----5--5--5--5--|
E|---------------------------------|

 

GUITAR 2:

 

e|--13----12-----------------------------------|
B|-------------13---13-/-15----15--15--15--15--|
G|---------------------------------------------|
D|---------------------------------------------|
A|---------------------------------------------|
E|---------------------------------------------|

 


Verse/Estrofa:

 

GUITAR 2:

 

e|-------------------------------------------------------|
B|-------------8-------------------------8---------------|
G|--10--9--10-----7-------9--10--9---10------7----7--10--|
D|--------------------10---------------------------------|
A|-------------------------------------------------------|
E|-------------------------------------------------------|

 

GUITAR 1:

 

e|-----------------------------------------------------------------------------|
B|-----------------------------------------------------------------------------|
G|--3--3--3--3--3--3---3--3--3--3--3--3---5--5--5--5--5--5---5--5--5--5--5--5--|
D|--3--3--3--3--3--3---3--3--3--3--3--3---5--5--5--5--5--5---5--5--5--5--5--5--|
A|--1--1--1--1--1--1---1--1--1--1--1--1---3--3--3--3--3--3---3--3--3--3--3--3--|
E|-----------------------------------------------------------------------------|

 

GUITAR 2:

 

e|--8----------------------|
B|-------------------------|
G|-----10------9---7-------|
D|---------------------10--|
A|-------------------------|
E|-------------------------|

 

GUITAR 1:

 

e|---------------------------------------------------------------------|
B|---------------------------------------------------------------------|
G|--7--7---7---7---7---7------5--5---7--7---7---7---7---7-------5---5--|
D|--7--7---7---7---7---7------5--5---7--7---7---7---7---7-------5---5--|
A|--5--5---5---5---5---5------3--3---5--5---5---5---5---5-------3---3--|
E|---------------------------------------------------------------------|

 

GUITAR 2:

 

e|-------------------------------------------8---8---------|
B|-------------8--------------------------8----------------|
G|--10--9--10-----7-------9--10---9---10------------10--9--|
D|--------------------10-----------------------------------|
A|---------------------------------------------------------|
E|---------------------------------------------------------|

 

GUITAR 1:

 

e|-----------------------------------------------------------------------------|
B|-----------------------------------------------------------------------------|
G|--3--3--3--3--3--3---3--3--3--3--3--3---5--5--5--5--5--5---5--5--5--5--5--5--|
D|--3--3--3--3--3--3---3--3--3--3--3--3---5--5--5--5--5--5---5--5--5--5--5--5--|
A|--1--1--1--1--1--1---1--1--1--1--1--1---3--3--3--3--3--3---3--3--3--3--3--3--|
E|-----------------------------------------------------------------------------|

 

GUITAR 2:

 

e|-----------------------------|
B|--8---8-------------------8--|
G|---------10------9---10------|
D|-----------------------------|
A|-----------------------------|
E|-----------------------------|

 


Pre-Chorus/Pre-Estribillo:

 

GUITAR 1:

 

e|--------1----------0----------1------3--|
B|-----1----------1----------1---------3--|
G|-------------------------------------4--|
D|------------------------0---------------|
A|--1----------0--------------------------|
E|----------------------------------------|

 

GUITAR 2:

 

e|-----------------------------------------|
B|--10-------8-----------------------------|
G|-------10-------9------7---10--------10--|
D|-------------------10------------9-------|
A|-----------------------------------------|
E|-----------------------------------------|

 

GUITAR 1:

 

e|--------------------------------------------------------------------5-----3--|
B|-----------------------------------------------------------------------------|
G|--8--8---8--8--8---8--8----8--8---8--8--8---8--8--------------5--5-----5-----|
D|--8--8---8--8--8---8--8----8--8---8--8--8---8--8---(8)-x--x------------------|
A|--6--6---6--6--6---6--6----6--6---6--6--6---6--6---(8)-x--x------------------|
E|---------------------------------------------------(6)-x--x------------------|

 

GUITAR 2:

 

e|----------------------------------------------------------------------------------------|
B|--8------8--10--10-/-11----8------8------8--13--13--11----------------------------------|
G|-----10-----------------------10-----10------------------12---12-/-14--10--10-/-12--12--|
D|----------------------------------------------------------------------------------------|
A|----------------------------------------------------------------------------------------|
E|----------------------------------------------------------------------------------------|

 


Chorus/Estribillo:

 

GUITAR 1:

 

e|-----------------------------------------------------------------------------|
B|-----------------------------------------------------------------------------|
G|--7--7--7--7--7--7---2--2--2--2--2--2---3--3--3--3--3--3---5--5--5--5--5--5--|
D|--7--7--7--7--7--7---2--2--2--2--2--2---3--3--3--3--3--3---5--5--5--5--5--5--|
A|--5--5--5--5--5--5---0--0--0--0--0--0---1--1--1--1--1--1---3--3--3--3--3--3--|
E|-----------------------------------------------------------------------------|

 

GUITAR 2:

 

e|-------------------------------------------------------------|
B|--------------13------------15--15--13---10--11--10------11--|
G|--10--12--14-------10-\-9----------------------------12------|
D|-------------------------------------------------------------|
A|-------------------------------------------------------------|
E|-------------------------------------------------------------|

 

GUITAR 1:

 

e|----------------------------------------------------------------|
B|----------------------------------------------------------------|
G|--3---3--3---3--3---3--3----------------------2--2--2--2--2--2--|
D|--3---3--3---3--3---3--3---2--2--2--2--2--2---2--2--2--2--2--2--|
A|--1---1--1---1--1---1--1---2--2--2--2--2--2---0--0--0--0--0--0--|
E|---------------------------0--0--0--0--0--0---------------------|

 

GUITAR 2:

 

e|--------------------------------------------------------10------|
B|--10------10------10------10------10--------10--11--10------10--|
G|------12------12------12------12--------12----------------------|
D|----------------------------------------------------------------|
A|----------------------------------------------------------------|
E|----------------------------------------------------------------|

 

GUITAR 1:

 

e|-----------------------------------------------------------------------------|
B|-----------------------------------------------------------------------------|
G|--7--7--7--7--7--7---2--2--2--2--2--2---3--3--3--3--3--3---5--5--5--5--5--5--|
D|--7--7--7--7--7--7---2--2--2--2--2--2---3--3--3--3--3--3---5--5--5--5--5--5--|
A|--5--5--5--5--5--5---0--0--0--0--0--0---1--1--1--1--1--1---3--3--3--3--3--3--|
E|-----------------------------------------------------------------------------|

 

GUITAR 2:

 

e|-------------------------------------------------------------|
B|--------------13------------15--15--13---10--11--10------13--|
G|--10--12--14-------10-\-9----------------------------12------|
D|-------------------------------------------------------------|
A|-------------------------------------------------------------|
E|-------------------------------------------------------------|

 

GUITAR 1:


e|-------------------------------------------------------------|
B|-------------------------------------------------------------|
G|--7---7--7---3---3--3----------------------2--2--2--2--2--2--|
D|--7---7--7---3---3--3---2--2--2--2--2--2---2--2--2--2--2--2--|
A|--5---5--5---1---1--1---2--2--2--2--2--2---0--0--0--0--0--0--|
E|------------------------0--0--0--0--0--0---------------------|

 

GUITAR 2:

 

e|--------------------------------------------------------10------|
B|--10------10------10------10------10--------13--11--10----------|
G|------12------12------12------12--------12------------------12--|
D|----------------------------------------------------------------|
A|----------------------------------------------------------------|
E|----------------------------------------------------------------|

 

GUITAR 1:

 

e|--------------------------------------------------------------------|
B|--------------------------------------------------------------------|
G|----------------------------------------7--7--9--9--10--10--12--12--|
D|--5--5--5--5--5--5---7--7--7--7--7--7-------------------------------|
A|--5--5--5--5--5--5---7--7--7--7--7--7---5--5--7--7--8---8---10--10--|
E|--3--3--3--3--3--3---5--5--5--5--5--5-------------------------------|

 

GUITAR 2:

 

e|-------------------------------------------------|
B|----------13--10----10-h-11--10----------10------|
G|--12--10-------------------------12--12----------|
D|---------------------------------------------12--|
A|-------------------------------------------------|
E|-------------------------------------------------|

 

GUITAR 1:

 

e|------------------------------------------------------------|
B|------------------------------------------------------------|
G|--3--3--3--3--3--3---5--5--5--5--5--5---7--7---7--7---7--7--|
D|--3--3--3--3--3--3---5--5--5--5--5--5---7--7---7--7---7--7--|
A|--1--1--1--1--1--1---3--3--3--3--3--3---5--5---5--5---5--5--|
E|------------------------------------------------------------|

 

GUITAR 2:

 

e|------------------------------------------------------------------------------------|
B|------------------------------------------------------------------------------------|
G|--14--14--14--14--14--12-\-10-------10-h-12--10-\-9---------------------------------|
D|-------------------------------10--------------------10---12--12---12--12---12--12--|
A|------------------------------------------------------------------------------------|
E|------------------------------------------------------------------------------------|

 


Outro:

 

GUITAR 1:

 

e|----------------------------------------------------------------------------------|
B|----------------------------------------------------------------------------------|
G|--7--7--7--7--7--7---2--2--2--2--2--2---3--3--3--3--3--3---5--5--5--5--5--5---3---|
D|--7--7--7--7--7--7---2--2--2--2--2--2---3--3--3--3--3--3---5--5--5--5--5--5---3---|
A|--5--5--5--5--5--5---0--0--0--0--0--0---1--1--1--1--1--1---3--3--3--3--3--3---1---|
E|----------------------------------------------------------------------------------|

GUITAR 2:

 

e|------------------------------------------------------------------------------|
B|------------------------------------------------------------------------------|
G|--10-h-12--10------12--9------9--------10-h-12--10------12--9------9--9-/-10--|
D|---------------10---------10-----12-----------------10---------10-------------|
A|------------------------------------------------------------------------------|
E|------------------------------------------------------------------------------|

 

 

Crossing Field - Tron544
00:00 / 00:00

©2019 by Fefe - Tron544

Sigueme en:

  • YouTube - White Circle
  • Facebook - White Circle
  • Instagram - White Circle
  • Twitter - White Circle
This site was designed with the
.com
website builder. Create your website today.
Start Now