COURAGE

SWORD ART ONLINE II

TABS ~ By Fefe (Tron544)

 

Intro:

 

e|--15--14---------15--14--------15--14--------------------------|

B|-----------15-------------15-----------15--13--12--------------|

G|---------------------------------------------------14--11--12--|

D|---------------------------------------------------------------|

A|---------------------------------------------------------------|

E|---------------------------------------------------------------|

 

e|------------------------------------|

B|--------12------12------12--13------|

G|--14--------14------14----------14--|

D|------------------------------------|

A|------------------------------------|

E|------------------------------------|

 

 

Verse/Estrofa

 

GUITAR 1:

 

e|--0------------5--|

B|--3------3--------|

G|--0---------2-----|

D|------------------|

A|--2---------------|

E|------------------|

 

GUITAR 2:

 

e|-----------------------------------------------------------------------|

B|-----------------------------------------------------------------------|

G|--12--12--11--12--12--11--12-------12--12--12--11--12--12--11--12--11--|

D|------------------------------12---------------------------------------|

A|-----------------------------------------------------------------------|

E|-----------------------------------------------------------------------|

 

GUITAR 1:

 

e|--------5------------2------------------|

B|--3------------3------------------------|

G|-----2-----2------2------7--7--7--7--7--|

D|-------------------------7--7--7--7--7--|

A|-------------------------5--5--5--5--5--|

E|----------------------------------------|

 

GUITAR 2:

 

e|-------------------------------------------------------|

B|-------------------------------------------------------|

G|------12--11------11-----------12--12--11------11--12--|

D|--14----------14-------14--14--------------14----------|

A|-------------------------------------------------------|

E|-------------------------------------------------------|

 

GUITAR 1:

 

e|---------------------------------------------------|

B|---------------------------------------------------|

G|---------------------------------------------------|

D|--2--2--2--2--2--2--2--2---5--5--5--5--5--5--5--5--|

A|--2--2--2--2--2--2--2--2---5--5--5--5--5--5--5--5--|

E|--2--2--2--2--2--2--2--2---5--5--5--5--5--5--5--5--|

 

GUITAR 2:

 

e|-----------------------------------------------------------------------|

B|-----------------------------------------------------------------------|

G|--12--12--11--12--12--11--12-------12--12--12--11--12--12--11--12--11--|

D|------------------------------12---------------------------------------|

A|-----------------------------------------------------------------------|

E|-----------------------------------------------------------------------|

 

GUITAR 1:

 

e|----------------------------------------------|

B|----------------------------------------------|

G|---------------------------5--5--5--5---7--7--|

D|--4--4--4--4--4--4--4--4---5--5--5--5---7--7--|

A|--5--5--5--5--5--5--5--5---3--3--3--3---5--5--|

E|--4--4--4--4--4--4--4--4----------------------|

 

GUITAR 2:

 

e|---------------------------------------------------|

B|---------------------------------------------------|

G|------12--11------11-----------12--12--11------11--|

D|--14----------14-------14--14--------------14------|

A|---------------------------------------------------|

E|---------------------------------------------------|

 

 

Pre-Chorus/Pre-Estribillo:

 

GUITAR 1:

 

e|----------------------------------------------------------|

B|----------------------------------------------------------|

G|--5--5--5--5---7--7--7--7---------------------------------|

D|--5--5--5--5---7--7--7--7---2--0--2--2--5--2--2--2--5--7--|

A|--3--3--3--3---5--5--5--5---2--0--2--2--5--2--2--2--5--7--|

E|----------------------------2--0--2--2--5--2--2--2--5--7--|

 

GUITAR 2:

 

e|-----------------------------------|

B|-----------------------------------|

G|------11-h-12------11--12--11------|

D|--14-----------14--------------14--|

A|-----------------------------------|

E|-----------------------------------|

 

GUITAR 1:

 

e|----------------------------------------------------------|

B|----------------------------------------------------------|

G|--5--5--5--5---7--7--7--7---------------------------------|

D|--5--5--5--5---7--7--7--7---2--0--2--2--5--2--2--2--5--7--|

A|--3--3--3--3---5--5--5--5---2--0--2--2--5--2--2--2--5--7--|

E|----------------------------2--0--2--2--5--2--2--2--5--7--|

 

GUITAR 2:

 

e|------------------------------------|

B|------------------------------------|

G|------11-h--12------11--12--14--11--|

D|--14------------14------------------|

A|------------------------------------|

E|------------------------------------|

 

GUITAR 1:

 

e|----------------------------------------------------|

B|----------------------------------------------------|

G|--5--5--5--5---7--7--7--7---------------------7--7--|

D|--5--5--5--5---7--7--7--7---5--5--4--4--2--2--7--7--|

A|--3--3--3--3---5--5--5--5---5--5--5--5--2--2--5--5--|

E|----------------------------5--5--4--4--2--2--------|

 

GUITAR 2:

 

e|------------------------------------------------------------------|

B|----------------------------------12--12------12------12----------|

G|----------11--12--11----------------------14------12------14--11--|

D|--12--14--------------12--12--12----------------------------------|

A|------------------------------------------------------------------|

E|------------------------------------------------------------------|

 

GUITAR 1:

 

e|-----------------------------------------------|

B|-----------------------------------------------|

G|--5--5--5--5--5--5--5--5---7--7---7--7---7--7--|

D|--5--5--5--5--5--5--5--5---7--7---7--7---7--7--|

A|--3--3--3--3--3--3--3--3---5--5---5--5---5--5--|

E|-----------------------------------------------|

 

GUITAR 2:

 

e|-------------------------------------------|

B|-------13--13--12------12----------12------|

G|-------------------14------14--14------14--|

D|--14---------------------------------------|

A|-------------------------------------------|

E|-------------------------------------------|

courage - Tron544
00:00 / 00:00
DONATE%20BUTTON%20(EN)_edited.png

Chorus/Estribillo:

 

GUITAR 1:

 

e|----------------------------------------------------|

B|----------------------------------------------------|

G|----------------------------------------------------|

D|--5--5--5--5---4--4--4--4---2--2--2--2--2--2--2--2--|

A|--5--5--5--5---5--5--5--5---2--2--2--2--2--2--2--2--|

E|--5--5--5--5---4--4--4--4---2--2--2--2--2--2--2--2--|

 

GUITAR 2:

 

e|-------------------------------------------------------------------------------|

B|--12--12----------12------12--12--15--12------12---------------------------12--|

G|----------14--12------14------------------14------14---12-h-14-/-16----14------|

D|-------------------------------------------------------------------------------|

A|-------------------------------------------------------------------------------|

E|-------------------------------------------------------------------------------|

 

GUITAR 1:

 

e|----------------------------------------------------|

B|----------------------------------------------------|

G|--5--5--5--5---7--7--7--7---------------------------|

D|--5--5--5--5---7--7--7--7---5--5--5--5--5--5--5--5--|

A|--3--3--3--3---5--5--5--5---5--5--5--5--5--5--5--5--|

E|----------------------------5--5--5--5--5--5--5--5--|

 

GUITAR 2:

 

e|-----------------------------------------------|

B|--13--13--13--12-------------------12--13--12--|

G|------------------14---11--12--14--------------|

D|-----------------------------------------------|

A|-----------------------------------------------|

E|-----------------------------------------------|

 

GUITAR 1:

 

e|-----------------------------------------------------|

B|-----------------------------------------------------|

G|--5--5--5--5---7--7--7--7----------------------------|

D|--5--5--5--5---7--7--7--7---5--5--4--4---2--2--2--2--|

A|--3--3--3--3---5--5--5--5---5--5--5--5---2--2--2--2--|

E|----------------------------5--5--4--4---2--2--2--2--|

 

GUITAR 2:

 

e|------------------------------------------------------------------------------------|

B|--12--------------------------------------------12--12------12--12--13--12----------|

G|------14--14--12-------12--14--14---11--12--14----------14------------------14--12--|

D|-------------------14---------------------------------------------------------------|

A|------------------------------------------------------------------------------------|

E|------------------------------------------------------------------------------------|

 

GUITAR 1:

 

e|------------------------------------------|

B|------------------------------------------|

G|--5--5--5--5--5--5--5--5---7--7--7--7--7--|

D|--5--5--5--5--5--5--5--5---7--7--7--7--7--|

A|--3--3--3--3--3--3--3--5---5--5--5--5--5--|

E|------------------------------------------|

 

GUITAR 2:

 

e|-------------------------------------|

B|----------------12-------12--12------|

G|------12--12--------14-----------14--|

D|--14---------------------------------|

A|-------------------------------------|

E|-------------------------------------|

 

GUITAR 1:

 

e|------------|

B|------------|

G|--5------7--|

D|--5------7--|

A|--3------5--|

E|------------|

 

GUITAR 2:

 

e|-------------------------------------------------------------------------------|

B|--12--12----------12------12--12--15--12------12---------------------------12--|

G|----------14--12------14------------------14------14---12-h-14-/-16----14------|

D|-------------------------------------------------------------------------------|

A|-------------------------------------------------------------------------------|

E|-------------------------------------------------------------------------------|

 

GUITAR 1:

 

e|------------|

B|------------|

G|--4---------|

D|--4------5--|

A|--2------5--|

E|---------5--|

 

GUITAR 2:

 

e|-----------------------------------------------|

B|--13--13--13--12-----------12--13--13--12--12--|

G|------------------14---14----------------------|

D|-----------------------------------------------|

A|-----------------------------------------------|

E|-----------------------------------------------|

 

GUITAR 1:

 

e|-----------------------------------------------------|

B|-----------------------------------------------------|

G|--5--5--5--5---7--7--7--7----------------------------|

D|--5--5--5--5---7--7--7--7---5--5--4--4---2--2--2--2--|

A|--3--3--3--3---5--5--5--5---5--5--5--5---2--2--2--2--|

E|----------------------------5--5--4--4---2--2--2--2--|

 

GUITAR 2:

 

e|------------------------------------------------------------------------------------|

B|--12--------------------------------------------12--12------12--12--13--12----------|

G|------14--14--12-------12--14--14---11--12--14----------14------------------14--12--|

D|-------------------14---------------------------------------------------------------|

A|------------------------------------------------------------------------------------|

E|------------------------------------------------------------------------------------|

 

GUITAR 1:

 

e|------------------------------------------------------------------|

B|---------------------------8--7-----8--7-----8--7-----------------|

G|--5--5--5--5--5--5--5--5---------7--------7--------7--7--7--7--7--|

D|--5--5--5--5--5--5--5--5------------------------------7--7--7--7--|

A|--3--3--3--3--3--3--3--5------------------------------5--5--5--5--|

E|------------------------------------------------------------------|

 

GUITAR 2:

 

e|-------------------------------------------------|

B|----------------12-----------12------------------|

G|------12--12--------14-----------14--12--14--12--|

D|--14---------------------12----------------------|

A|-------------------------------------------------|

E|-------------------------------------------------|

©2015 by Fefe - Tron544

Sigueme en:

  • YouTube - White Circle
  • Facebook - White Circle
  • Instagram - White Circle
  • Twitter - White Circle
This site was designed with the
.com
website builder. Create your website today.
Start Now