CORE PRIDE

BLUE EXORCIST

TABS ~ By Fefe (Tron544)

 

Intro:

 

GUITAR 2:

 

e|------------------------------------------------|

B|------------------------------------------------|

G|--7--7--7--7--7----5-------------x--x--5--5--5--|

D|--7--7--7--7--7----5---x--x--3---x--x--5--5--5--|

A|--5--5--5--5--5----3---x--x--3---x--x--3--3--3--|

D|-----------------------x--x--3------------------|

 

GUITAR 1:

 

e|---------------------------------|---------------------------------------------------|

B|---------------------------------|---------------------------------------------------|

G|--15-b--15-b--15-b---12------12--|--17-b--17-b--17-----------------------------------|

D|-------------------------15------|------------------17--15--17---15----------15------|

A|---------------------------------|-----------------------------------17--15------17--|

D|---------------------------------|---------------------------------------------------|

 

GUITAR 2:

 

e|----------------------|-----------------------|

B|----------------------|-----------------------|

G|--3------5--5---6--6--|--7-----5--------------|

D|--3------5--5---7--7--|--7-----5---3---5---0--|

A|--1------3--3---4--4--|--5-----3---3---5---0--|

D|----------------------|------------3---5---0--|

 

 

Verse/Estrofa:

 

GUITAR 2:

 

                                                   /~~~~~~~~~~~~~~~~( REPEAT x3 / REPITE x3 )~~~~~~~~~~~~~~\

e|------------------------------------------------|---------------------------------------------------------|

B|------------------------------------------------|---------------------------------------------------------|

G|------------------------------------------------|---------------------------------------------------------|

D|--(0)--x--x--x---x--x--x--x---x--x--x--x---x--x-|--(7)--x---(0)--x--x--x---x--x--x--x---x--x--x--x---x--x-|

A|--(0)--x--x--x---x--x--x--x---x--x--x--x---x--x-|--(7)--x---(0)--x--x--x---x--x--x--x---x--x--x--x---x--x-|

D|--(0)--x--x--x---x--x--x--x---x--x--x--x---x--x-|--(7)--x---(0)--x--x--x---x--x--x--x---x--x--x--x---x--x-|

 

GUITAR 1:

 

e|--------------------------------------|--------------------------------------|

B|--------------------------------------|--------------------------------------|

G|--12--10--10--12--10--10--12--10------|------10--12--10--12--10--10--12--14--|

D|----------------------------------12--|--12----------------------------------|

A|--------------------------------------|--------------------------------------|

D|--------------------------------------|--------------------------------------|

 

GUITAR 2:

 

  /~~~~~~~~~~~~~~~~~REPEAT~x3~~/~~REPITE~x3~~~~~~~~~~~~~~~~\

e|----------------------------------------------------------|-----------|

B|----------------------------------------------------------|-----------|

G|----------------------7----------7----------7----------7--|-----------|

D|--(7)--x--x---(0)--x-----(0)--x-----(0)--x-----(0)--x-----|--7--7--7--|

A|--(7)--x--x---(0)--x-----(0)--x-----(0)--x-----(0)--x-----|--7--7--7--|

D|--(7)--x--x---(0)--x-----(0)--x-----(0)--x-----(0)--x-----|--7--7--7--|

 

 

Pre-Chorus/Pre-Estribillo:

 

GUITAR 1:

 

e|----------------------------------------------|----------------------------------------------|

B|----------6----------6----------6----------6--|----------6----------6----------6----------6--|

G|----------7----------7----------7----------7--|----------7----------7----------7----------7--|

D|----------------------------------------------|----------------------------------------------|

A|--(5)--x-----(5)--x-----(5)--x-----(5)--x-----|----------------------------------------------|

D|----------------------------------------------|--(8)--x-----(8)--x-----(8)--x-----(8)--x-----|

 

GUITAR 2:

 

e|------------------------------|--------------------------------------|

B|------------------------------|------10--10--10--10--11--10--10------|

G|--12--10------10--12--10------|--10------------------------------12--|

D|----------12--------------12--|--------------------------------------|

A|------------------------------|--------------------------------------|

D|------------------------------|--------------------------------------|

 

GUITAR 1:

 

e|----------------------------------------------|-------------------------------------------|

B|----------5----------5----------5----------5--|----------6----------6----------6-------6--|

G|----------5----------5----------5----------5--|----------5----------5----------5-------5--|

D|----------------------------------------------|-------------------------------------------|

A|--(3)--x-----(3)--x-----(3)--x-----(3)--x-----|-------------------------------------------|

D|----------------------------------------------|--(3)--x-----(3)--x-----(3)--x-----(3)-----|

 

GUITAR 2:

 

e|-----------------------------------------------------------|--------------|

B|------10--10--10--10--11--10--10---------------------------|--------------|

G|--10------------------------------12---10--12--10--12--10--|--12--12--14--|

D|-----------------------------------------------------------|--------------|

A|-----------------------------------------------------------|--------------|

D|-----------------------------------------------------------|--------------|

 

GUITAR 1:

 

e|----------------------------------------------|----------------------------------------------|

B|----------6----------6----------6----------6--|----------6----------6----------6----------6--|

G|----------7----------7----------7----------7--|----------7----------7----------7----------7--|

D|----------------------------------------------|----------------------------------------------|

A|--(5)--x-----(5)--x-----(5)--x-----(5)--x-----|----------------------------------------------|

D|----------------------------------------------|--(8)--x-----(8)--x-----(8)--x-----(8)--x-----|

 

GUITAR 2:

 

e|------------------------------------------|--------------------------------------|

B|------------------------------------------|------10--10--10--10--11--10--10------|

G|----------10--12--10------10--12--10------|--10------------------------------12--|

D|--12--12--------------12--------------12--|--------------------------------------|

A|------------------------------------------|--------------------------------------|

D|------------------------------------------|--------------------------------------|

 

GUITAR 1:

 

e|------------|

B|------------|

G|---------5--|

D|--5------5--|

A|--5------3--|

D|--5---------|

 

GUITAR 2:

 

e|----------------------------------------------------|

B|----------------------------------------------------|

G|--------------------------10--9--9--9--10-h-12--10--|

D|----------12--12--12--12----------------------------|

A|--10--12--------------------------------------------|

D|----------------------------------------------------|

CORE PRIDE - Tron544
00:00 / 00:00
DONATE%20BUTTON%20(EN)_edited.png

Chorus/Estribillo:

 

GUITAR 1:

 

e|-----------------|

B|-----------------|

G|--3------2----7--|

D|--3------2----7--|

A|--1------0----5--|

D|-----------------|

 

GUITAR 2:

 

e|-----------------------------------------------------------------------|

B|--10---------------------------------------10--10--10--11--10----------|

G|------12--10--10------10------12---12--10----------------------12--10--|

D|------------------12------12-------------------------------------------|

A|-----------------------------------------------------------------------|

D|-----------------------------------------------------------------------|

 

GUITAR 1:

 

e|---------------------------|

B|---------------------------|

G|--3----5----7---6---5---4--|

D|--3----5----7---7---5---5--|

A|--1----3----5---4---3---2--|

D|---------------------------|

 

GUITAR 2:

 

e|---------------------------------------------------|

B|--10--10-------------------------------------------|

G|----------12--10--10--9--9--9--9----10--9----------|

D|-------------------------------------------12------|

A|-----------------------------------------------12--|

D|---------------------------------------------------|

 

GUITAR 1:

 

e|-----------------|

B|-----------------|

G|--3------2----7--|

D|--3------2----7--|

A|--1------0----5--|

D|-----------------|

 

GUITAR 2:

 

e|--------------------------------------------------------------------------------------------------|

B|--10--10--10--10--10--------------------------------------------------10--10--10--11--10----------|

G|----------------------12--10--12--10--10--10------10--12--10--12--10----------------------12--10--|

D|----------------------------------------------12--------------------------------------------------|

A|--------------------------------------------------------------------------------------------------|

D|--------------------------------------------------------------------------------------------------|

 

GUITAR 1:

 

e|--------------------|

B|--------------------|

G|--3----5----6----7--|

D|--3----5----7----7--|

A|--1----3----4----5--|

D|--------------------|

 

GUITAR 2:

 

e|-----------------------------------------------------|

B|--10--10--------------------------10--13-------------|

G|----------12--9--9--10----10--12----------10--9--10--|

D|-----------------------------------------------------|

A|-----------------------------------------------------|

D|-----------------------------------------------------|

 

GUITAR 1:

 

e|------------|

B|------------|

G|--3------5--|

D|--3------5--|

A|--1------3--|

D|------------|

 

GUITAR 2:

 

e|----------------------------------------------10------------------|

B|--------------------------------------------------13--10----------|

G|--10--12--10--12----10--12--12----10--10--10--------------12--10--|

D|------------------------------------------------------------------|

A|------------------------------------------------------------------|

D|------------------------------------------------------------------|

 

 

Outro:

 

GUITAR 1:

 

e|-----------------|

B|-----------------|

G|--3------2----7--|

D|--3------2----7--|

A|--1------0----5--|

D|-----------------|

 

GUITAR 2:

 

e|--------------------------------------------------------------|

B|------------------------------------------------------11--10--|

G|--10--12--10--12----10--12--10--12----10--12--10--12----------|

D|--------------------------------------------------------------|

A|--------------------------------------------------------------|

D|--------------------------------------------------------------|

 

GUITAR 1:

 

e|------------------------|-----------------------|

B|------------------------|-----------------------|

G|-------2----3----5---6--|--7-----5--------------|

D|--5----2----3----5---7--|--7-----5---3---5---0--|

A|--5----0----1----3---4--|--5-----3---3---5---0--|

D|--5---------------------|------------3---5---0--|

 

GUITAR 2:

 

e|------------------------------------------------------|---------------------------------------------------|

B|------------------------------------------------------|---------------------------------------------------|

G|--10--12--10--12----10--12--10--12----10--12--10--12--|--17-b--17-b--17-----------------------------------|

D|------------------------------------------------------|------------------17--15--17---15----------15------|

A|------------------------------------------------------|-----------------------------------17--15------17--|

D|------------------------------------------------------|---------------------------------------------------|

©2015 by Fefe - Tron544

Sigueme en:

  • YouTube - White Circle
  • Facebook - White Circle
  • Instagram - White Circle
  • Twitter - White Circle
This site was designed with the
.com
website builder. Create your website today.
Start Now