~ COOLEST ~

TABLATURAS ~ By Fefe - Tron544

 

Intro:

 

GUITAR 1:

 

e|------------------------------------|
B|------------------------------------|
G|---------------------------7--7--7--|
D|--2------5---2------5--5---7--7--7--|
A|--2------5---2------5--5---5--5--5--|
E|--0------3---0------3--3------------|

 

GUITAR 2:

 

e|---------------------------------------------------------------------------------------|
B|---------------------------------------------------------------------------------------|
G|---------------------------------------------------------------------------------------|
D|---------------------------------------------------------------------------------------|
A|--5--7--5------------------------------------5--7--5--------------------------------5--|
E|-----------7-\-0---0--2--3---2--0--6--5--3------------7-\-0---0--2--3---2--0--6--5-----|

 

GUITAR 1:

 

e|---------------|
B|---------------|
G|---------------|
D|--2------------|
A|--2------------|
E|--0------6--5--|

 

GUITAR 2:

 

e|---------------------------------------------------------------------------------|
B|---------------------------------------------------------------------------------|
G|---------------------------------------------------------------------------------|
D|---------------------------------------------------------------------------------|
A|--5--7--5------------------------------------5--7--5-----------------------------|
E|-----------7-\-0---0--2--3---2--0--6--5--3------------7-\-0---0--2--3---0--6--5--|

 


Verse/Estrofa:

 

GUITAR 2:

 

e|-----------------------------------------------------------------------|
B|-----------------------------------------------------------------------|
G|-----------------------------------------------------------------7--9--|
D|--9--9---9--9--9--9--9--9--9--9---9--9---9--9--9--9--9--9--9--9--------|
A|-----------------------------------------------------------------------|
E|-----------------------------------------------------------------------|

 

e|---------------------------------------------------------|
B|---------------------------------------------------------|
G|--------------------------7------9--9--9--9--9--9--7--9--|
D|--9--9--9--9--9--9--9--9-----9---------------------------|
A|---------------------------------------------------------|
E|---------------------------------------------------------|

 

GUITAR 1:

 

e|-----------|-----------------------------------------------------------------------------------|
B|-----------|-----------------------------------------------------------------------------------|
G|-----------|-----------------------------------------------------------------------------------|
D|--#--#--#--|--(2)-x--2--(5)-x--5--(4)-x--4--(3)-x--3---(2)-x--2--(5)-x--5--(4)-x--4--(3)-x--3--|
A|--#--#--#--|--(2)-x--2--(5)-x--5--(4)-x--4--(3)-x--3---(2)-x--2--(5)-x--5--(4)-x--4--(3)-x--3--|
E|--#--#--#--|--(0)-x--0--(3)-x--3--(2)-x--2--(1)-x--1---(0)-x--0--(3)-x--3--(2)-x--2--(1)-x--1--|

 

GUITAR 2:

 

e|-----------------------------------------------------------------------|
B|---------------------------------8----------------------------------8--|
G|--9--9--9--9--9--7--7--9--9--9------9--9--7--9---9--7--7--9--7--9------|
D|-----------------------------------------------------------------------|
A|-----------------------------------------------------------------------|
E|-----------------------------------------------------------------------|

 

GUITAR 1:

 

e|--------------------------------------------------------------------------|
B|--------------------------------------------------------------------------|
G|-------------------------------------------9--9--9--9--9---9--9--9--9--9--|
D|--(2)-x--2--(5)-x--5--(4)-x--4--(3)-x--3---9--9--9--9--9---9--9--9--9--9--|
A|--(2)-x--2--(5)-x--5--(4)-x--4--(3)-x--3---7--7--7--7--7---7--7--7--7--7--|
E|--(0)-x--0--(3)-x--3--(2)-x--2--(1)-x--1----------------------------------|

 

GUITAR 2:

 

e|----------------------------------------------------------------------|
B|------8--------8------8------9--9--9--9--9--9--7--7--9--7-------------|
G|--9------9--9-----9------9---------------------------------9----6--8--|
D|----------------------------------------------------------------------|
A|----------------------------------------------------------------------|
E|----------------------------------------------------------------------|

 


Pre-Chorus/Pre-Estribillo:

 

GUITAR 1:

 

e|-----------------------------------------------------------|
B|-----------------------------------------------------------|
G|--2--x--x--2---x--x--2--x--x-------------------------------|
D|--2--x--x--2---x--x--2--x--x---2--x--x--2---x--x--2--x--x--|
A|--0--x--x--0---x--x--0--x--x---2--x--x--2---x--x--2--x--x--|
E|-------------------------------0--x--x--0---x--x--0--x--x--|

 

GUITAR 2:

 

e|-----------------------------------------------------------------------------------|
B|-------------------------7-----9--9--9---9--9--9--9--------------------------7--7--|
G|--9--9--9--9----9--9--9-----9-------------------------9--9--9--9-------------------|
D|-------------------------------------------------------------------9--9--9---------|
A|-----------------------------------------------------------------------------------|
E|-----------------------------------------------------------------------------------|

 

GUITAR 1:

 

e|--------------------------------------------------------|
B|--------------------------------------------------------|
G|-------------------------------6--x--x--6---------------|
D|--6--x--x--6---x--x--6--x--x---6--x--x--6---------------|
A|--6--x--x--6---x--x--6--x--x---4--x--x--4---4--6--7--6--|
E|--4--x--x--4---x--x--4--x--x----------------------------|

 

GUITAR 2:

 

e|------------------------------------------------------------|
B|--9------------------------------------------7--7-/-9-------|
G|------8--8---8--6------6--8-----6--8--8-/-9--------------9--|
D|-------------------9---------9------------------------------|
A|------------------------------------------------------------|
E|------------------------------------------------------------|

 

GUITAR 1:

 

e|-----------------------------------------------------------------|
B|-----------------------------------------------------------------|
G|----------------------------------2--2--2--2--2---3--3--3--3--3--|
D|--4--4--4--4--4---6--6--6--6--6---2--2--2--2--2---3--3--3--3--3--|
A|--4--4--4--4--4---6--4--6--6--6---0--0--0--0--0---1--1--1--1--1--|
E|--2--2--2--2--2---4--4--4--4--4----------------------------------|

 

GUITAR 2:

 

e|---------------------------------------------------------------------------------|
B|--7-----7-----7-----7-----9--9--9------------------------------------------------|
G|-----9-----9-----9-----9-----------8---8--9--9--9--9--9--9--9--9--10--10--8--10--|
D|---------------------------------------------------------------------------------|
A|---------------------------------------------------------------------------------|
E|---------------------------------------------------------------------------------|

 

GUITAR 1:

 

e|-------------------------------------------------------|
B|-------------------------------------------------------|
G|--4----------4-----------------------------------------|
D|--4------4---4------4---------------1-----1--2--2-/-4--|
A|--2------4---2------4---2--1--2--4-----4---------------|
E|---------2----------2----------------------------------|

 

GUITAR 2:

 

e|----------------------------------------------------------------------------------|
B|--------------------------------------------------------------------------7-------|
G|--10-/-11------6--8------------------6--8------------------6--8--6--8--9-------9--|
D|------------9---------9--8--9--8--9---------9--8--9--8--9-------------------------|
A|----------------------------------------------------------------------------------|
E|----------------------------------------------------------------------------------|

 


Chorus/Estribillo:

 

GUITAR 1:

 

e|--------------------------------------------------------------------|
B|--------------------------------------------------------------------|
G|------------------5--5--5--5--5----------------------4--4--4--4--4--|
D|--2--2--2--2--2---5--5--5--5--5--(5)-x--5--x--x--5---4--4--4--4--4--|
A|--2--2--2--2--2---3--3--3--3--3--(5)-x--5--x--x--5---2--2--2--2--2--|
E|--0--0--0--0--0------------------(3)-x--3--x--x--3------------------|

 

GUITAR 2:

 

e|---------------------------------------------------------------------|
B|--8---------------8--8--------------------------8--7--7--7--7--8--7--|
G|------9--7--7--7--------9---9--9--7--7---7--7------------------------|
D|---------------------------------------------------------------------|
A|---------------------------------------------------------------------|
E|---------------------------------------------------------------------|

 

GUITAR 1:

 

e|--------------------------------------------------------------------|
B|--------------------------------------------------------------------|
G|------------------5--5--5--5--5----------------------4--4--4--4--4--|
D|--2--2--2--2--2---5--5--5--5--5--(5)-x--5--x--x--5---4--4--4--4--4--|
A|--2--2--2--2--2---3--3--3--3--3--(5)-x--5--x--x--5---2--2--2--2--2--|
E|--0--0--0--0--0------------------(3)-x--3--x--x--3------------------|

 

GUITAR 2:

 

e|------------------------------------------------------------|
B|--8------------8--8--------------------------8--7--7--8--7--|
G|------9--7--7--------9---9--9--7--7---7--7------------------|
D|------------------------------------------------------------|
A|------------------------------------------------------------|
E|------------------------------------------------------------|

 

GUITAR 1:

 

e|--------------------------------------------------------------------|
B|--------------------------------------------------------------------|
G|------------------5--5--5--5--5----------------------4--4--4--4--4--|
D|--2--2--2--2--2---5--5--5--5--5--(5)-x--5--x--x--5---4--4--4--4--4--|
A|--2--2--2--2--2---3--3--3--3--3--(5)-x--5--x--x--5---2--2--2--2--2--|
E|--0--0--0--0--0------------------(3)-x--3--x--x--3------------------|

 

GUITAR 2:

 

e|---------------------------------------------------------------------|
B|--8------------8--8--8--------------------------8--7--7--7--7--8--7--|
G|------9--7--7-----------9---9--9--7--7---7--7------------------------|
D|---------------------------------------------------------------------|
A|---------------------------------------------------------------------|
E|---------------------------------------------------------------------|

 

GUITAR 1:

 

e|--------------------------------------------------------------------|
B|--------------------------------------------------------------------|
G|------------------5--5--5--5--5----------------------4--4--4--4--4--|
D|--2--2--2--2--2---5--5--5--5--5--(5)-x--5--x--x--5---4--4--4--4--4--|
A|--2--2--2--2--2---3--3--3--3--3--(5)-x--5--x--x--5---2--2--2--2--2--|
E|--0--0--0--0--0------------------(3)-x--3--x--x--3------------------|

 

GUITAR 2:

 

e|---------------------------------------------------------------------|
B|--8------------8--8--8--------------------------8--7--7--7--7--8--7--|
G|------9--7--7-----------9---9--9--7--7---7--7------------------------|
D|---------------------------------------------------------------------|
A|---------------------------------------------------------------------|
E|---------------------------------------------------------------------|

 

GUITAR 1:

 

e|------------------------------------------------------------|
B|------------------------------------------------------------|
G|--5--5--5--5--5---7--7--7--7--------------------------------|
D|--5--5--5--5--5---7--7--7--7---5--5---4--4---2--2--2--2--2--|
A|--3--3--3--3--3---5--5--5--5---5--5---5--5---2--2--2--2--2--|
E|-------------------------------3--3---2--2---0--0--0--0--0--|

 

GUITAR 2:

 

e|------7--7--7--------------------------------------7--7------------|
B|---------------10--8--7----------------8-/-10--8---------10--8-----|
G|--9----------------------9--7-----7-----------------------------9--|
D|-------------------------------9-----9-----------------------------|
A|-------------------------------------------------------------------|
E|-------------------------------------------------------------------|

 

GUITAR 1:

 

e|-----------------------------------------------------|
B|-----------------------------------------------------|
G|--5--5--5--5--5---7--7--7--7---9------12--12--12--9--|
D|--5--5--5--5--5---7--7--7--7---9------12--12--12--9--|
A|--3--3--3--3--3---5--5--5--5---7------10--10--10--7--|
E|-----------------------------------------------------|

 

GUITAR 2:

 

e|-----------------------------------------------------------------|
B|--8--8--8--8--8--8--8-/-10--7--7---------------------8--8--8-----|
G|-----------------------------------7--9--9--9--9--7-----------9--|
D|-----------------------------------------------------------------|
A|-----------------------------------------------------------------|
E|-----------------------------------------------------------------|

 


Outro:

 

e|---------------------------------------------------------|
B|---------------------------------------------------------|
G|---------------------------------------------9--7--7--9--|
D|---------------------------------------------9--7--7--9--|
A|--5--7--5------------------------------------7--5--5--7--|
E|-----------7-\-0---0--2--3---2--0--6--5--3---------------|

 

 

COOLEST - Tron544
00:00 / 00:00

©2019 by Fefe - Tron544

Sigueme en:

  • YouTube - White Circle
  • Facebook - White Circle
  • Instagram - White Circle
  • Twitter - White Circle
This site was designed with the
.com
website builder. Create your website today.
Start Now