TABLATURAS ~ By Fefe - Tron544

 

 

Intro:

 

GUITAR (Rhythm):

 

e|--------------------------------------------------|
B|--------5------------2----------------------------|
G|-----------6------------4---------2---------------|
D|-----6------------4------------2------------2-----|
A|--4------------2------------0------------2-----2--|
E|--------------------------------------0-----------|

 

BASS:

 

G|--------------------------------------------------|
D|--------------------------------------------------|
A|--4--4--4--4---2--2--2--2---0--0--0---------------|
E|--------------------------------------0--0--0--0--|

 

GUITAR (Rhythm):

 

e|----------------------------------|
B|--------5-------------------------|
G|-----------6---------6---------2--|
D|-----6------------6---------2-----|
A|--4------------4---------0--------|
E|----------------------------------|

 

BASS:

 

G|----------------------------|
D|----------------------------|
A|--4--4--4--4---2--2--2---0--|
E|----------------------------|

 


Verse/Estribillo:

 

GUITAR (Rhythm):

 

e|---------------------------------------------------------------------------------|
B|-----------0-------------------4-------------------5-------------------5---------|
G|--------2------2------------4------4------------6------6------------6------6-----|
D|-----2------------2------4------------4------6------------6------6------------6--|
A|--0-------------------2-------------------4-------------------4------------------|
E|---------------------------------------------------------------------------------|

 

GUITAR (Vocals):

 

e|----------------------------------------------------------------|
B|----------------------------------------------------------------|
G|-----4--4--4--2-h-4--2--1-----------------------1------1--------|
D|--2------------------------4--2-/-4--2---2-h-4------4-----4--1--|
A|----------------------------------------------------------------|
E|----------------------------------------------------------------|

 

BASS:

 

G|-----------------------------------------------------------------------------------------------------|
D|-----------------------------------------------------------------------------------------------------|
A|--0--0--0--0--0--0--0--0---2--2--2--2--2--2--2--2---4--4--4--4--4--4--4--4---------------------------|
E|-----------------------------------------------------------------------------4--4--4--4--4--4--4--4--|

 

GUITAR (Rhythm):

 

e|--------------------------------------------------------------4--|
B|-----------0-------------------4-------------------5----------5--|
G|--------2------2------------4------4------------6------6------6--|
D|-----2------------2------4------------4------6------------6---6--|
A|--0-------------------2-------------------4-------------------4--|
E|-----------------------------------------------------------------|

 

GUITAR (Vocals):

 

e|---------------------------------------------------------|
B|---------------------------------------------------------|
G|--------------1--------1---2-/-4-------------------1-----|
D|--1-h-2----2-----2--4--------------1---1--1--2--4-----2--|
A|---------------------------------------------------------|
E|---------------------------------------------------------|

 

BASS:

 

G|-----------------------------------------------------------------------------------------------------|
D|--------------------------------------------------------------------------------6--6--4--3--4--3-----|
A|--0--0--0--0--0--0--0--0---2--2--2--2--2--2--2--2---4--4--4--4--4--4--4--4---4--------------------4--|
E|-----------------------------------------------------------------------------------------------------|

 


Pre-Chorus/Pre-Estribillo:

 

GUITAR (Rhythm):

 

e|-------------------------------------------------------------------------|
B|-------------------------------------------------------------------------|
G|--------------------------------------2--2--2---2---2--------------------|
D|--4--4--4---4---4---6--6--6---6---6---2--2--2---2---2---2--2--2---2---2--|
A|--4--4--4---4---4---6--6--6---6---6---0--0--0---0---0---2--2--2---2---2--|
E|--2--2--2---2---2---4--4--4---4---4---------------------0--0--0---0---0--|

 

GUITAR (Vocals):

 

e|---------------------------------------------------------------------------------------------------------|
B|--------------------------------------------------------------------------------------------9--10--9-----|
G|--11--11--9--11-/-13---9--9---11--11--9--11-/-13---9--9---11--11--9--11-/-13--9---9--9--11------------9--|
D|---------------------------------------------------------------------------------------------------------|
A|---------------------------------------------------------------------------------------------------------|
E|---------------------------------------------------------------------------------------------------------|

 

GUITAR (Harmony):

 

e|--------------------------------------------------------------------------------------------|
B|--------------------------------------------------------------------------------------------|
G|-----------------------------------------------------------------------------------6--------|
D|--7--7--6--7-/-9---6--6---7--7--6--7-/-9---6--6---7--7--6--7-/-9---6---6--6--7--9-----9--6--|
A|--------------------------------------------------------------------------------------------|
E|--------------------------------------------------------------------------------------------|

 

BASS:

 

G|-------------------------------------------------------------------------|
D|-------------------------------------------------------------------------|
A|--------------------------------------0--0--0---0---0--------------------|
E|--2--2--2---2---2---4--4--4---4---4---------------------0--0--0---0---0--|

 

GUITAR (Rhythm):

 

e|-------------------------------------------------------------------------|
B|-------------------------------------------------------------------------|
G|--------------------------------------2--2--2---2---2--------------------|
D|--4--4--4---4---4---6--6--6---6---6---2--2--2---2---2---2--2--2---2---2--|
A|--4--4--4---4---4---6--6--6---6---6---0--0--0---0---0---2--2--2---2---2--|
E|--2--2--2---2---2---4--4--4---4---4---------------------0--0--0---0---0--|

 

GUITAR (Vocals):

 

e|-------------------------------------------------------------------------------------|------------------|
B|----------------------------------------------------------------9-----------------9--|------------9-----|
G|-----11--9---9---9--9-----11--9------9-----9--9--9-h-11---9--9-----9---9--9-h-11-----|-----9--11-----9--|
D|--9--------------------9----------9-----9--------------------------------------------|--9---------------|
A|-------------------------------------------------------------------------------------|------------------|
E|-------------------------------------------------------------------------------------|------------------|

 

BASS:

 

G|------------------------------------------------------------------------|
D|------------------------------------------------------------------------|
A|--------------------------------------0--0--0--0--0--0--0--0---2--2--2--|
E|--2--2--2---2---2---4--4--4---4---4-------------------------------------|

 


Chorus/Estribillo:

 

GUITAR (Rhythm):

 

e|-----------------------------------------------------------------------------|
B|-----------------------------------------------------------------------------|
G|--2--2--2--2--2--2---4--4--4--4--4--4----------------------6--6--6--6--6--6--|
D|--2--2--2--2--2--2---4--4--4--4--4--4---2--2--2--2--2--2---6--6--6--6--6--6--|
A|--0--0--0--0--0--0---2--2--2--2--2--2---2--2--2--2--2--2---4--4--4--4--4--4--|
E|----------------------------------------0--0--0--0--0--0---------------------|

 

GUITAR (Vocals):

 

e|-----------------------------------------------------------------------------------------------|
B|----------9-------------------9-------------------9-----------------12--10--9------------------|
G|--9-h-11-----11-/-13--9---11-----11-/-13--9---11-----11-/-13--9--9-------------11-p-9--11-p-9--|
D|-----------------------------------------------------------------------------------------------|
A|-----------------------------------------------------------------------------------------------|
E|-----------------------------------------------------------------------------------------------|

 

GUITAR (Harmony):

 

e|----------------------------------------------------------------------------|
B|--------------------------------------------------------9-------------------|
G|--8--9--8-h-9------8--9--8-h-9------8--9--8-h-9------------11--9--8---------|
D|---------------9----------------9----------------9---9---------------11--9--|
A|----------------------------------------------------------------------------|
E|----------------------------------------------------------------------------|

 

BASS:

 

G|-----------------------------------------------------------------------------------------------------|
D|-----------------------------------------------------------------------------------------------------|
A|--0--0--0--0--0--0--0--0---2--2--2--2--0--0--0--0----------------------------4--4--4--4--4--2--4--2--|
E|----------------------------------------------------0--0--0--0--0--0--0--0---------------------------|

 

GUITAR (Rhythm):

 

e|---------------------------------------------------------------------------------|
B|---------------------------------------------------------------------------------|
G|--2--2--2--2--2--2---4--4--4--4--4--4---6--6---6--6--6---6--6--6--6--6--6--6--6--|
D|--2--2--2--2--2--2---4--4--4--4--4--4---6--6---6--6--6---6--6--6--6--6--6--6--6--|
A|--0--0--0--0--0--0---2--2--2--2--2--2---4--4---4--4--4---4--4--4--4--4--4--4--4--|
E|---------------------------------------------------------------------------------|

 

GUITAR (Vocals):

 

e|------------------------------------------------------------------|
B|--9--------------------------------------7-/-9--------------9-----|
G|-----11--9--8--9---6-/-8--9---6-/-8--9---------------9--11-----9--|
D|--------------------------------------------------9---------------|
A|------------------------------------------------------------------|
E|------------------------------------------------------------------|

 

GUITAR (Harmony):

 

e|-----------------------------------------------------------|
B|--10-/-12--10--9------9-----------9-----------9---10-/-12--|
G|------------------11------9-/-11------9-/-11---------------|
D|-----------------------------------------------------------|
A|-----------------------------------------------------------|
E|-----------------------------------------------------------|

 

BASS:

 

G|------------------------------------------------------------------------------------------------|
D|-----------2--2--2------------------4--4--4--------------------------------6--6--4--3--4--3-----|
A|--0--0--0-----------0--1---2--2--2-----------2--3---4--4---4--4--4---4--4--------------------4--|
E|------------------------------------------------------------------------------------------------|

 

GUITAR (Rhythm):

 

e|-----------------------------------------------------------------------------|
B|-----------------------------------------------------------------------------|
G|--2--2--2--2--2--2---4--4--4--4--4--4----------------------6--6--6--6--6--6--|
D|--2--2--2--2--2--2---4--4--4--4--4--4---2--2--2--2--2--2---6--6--6--6--6--6--|
A|--0--0--0--0--0--0---2--2--2--2--2--2---2--2--2--2--2--2---4--4--4--4--4--4--|
E|----------------------------------------0--0--0--0--0--0---------------------|

 

GUITAR (Vocals):

 

e|-----------------------------------------------------------------------------------------------|
B|----------9-------------------9-------------------9-----------------12--10--9------------------|
G|--9-h-11-----11-/-13--9---11-----11-/-13--9---11-----11-/-13--9--9-------------11-p-9--11-p-9--|
D|-----------------------------------------------------------------------------------------------|
A|-----------------------------------------------------------------------------------------------|
E|-----------------------------------------------------------------------------------------------|

 

GUITAR (Harmony):

 

e|----------------------------------------------------------------------------|
B|--------------------------------------------------------9-------------------|
G|--8--9--8-h-9------8--9--8-h-9------8--9--8-h-9------------11--9--8---------|
D|---------------9----------------9----------------9---9---------------11--9--|
A|----------------------------------------------------------------------------|
E|----------------------------------------------------------------------------|

 

BASS:

 

G|-----------------------------------------------------------------------------------------------------|
D|-----------------------------------------------------------------------------------------------------|
A|--0--0--0--0--0-----0--1---2--2--2--2--0--0---------------------------0--2---4--4--4--4--6--6--7--7--|
E|-----------------4---------------------------4--2---0--0--0--0--0--4---------------------------------|

 

GUITAR (Rhythm):

 

e|--------------------------------------------------------------|
B|--------------------------------------------------------------|
G|--2--2--2--2--2--2---4--4--4--4--4--4-------------------------|
D|--2--2--2--2--2--2---4--4--4--4--4--4---2---2---2---2---2--2--|
A|--0--0--0--0--0--0---2--2--2--2--2--2---2---2---2---2---2--2--|
E|----------------------------------------0---0---0---0---0--0--|

 

GUITAR (Vocals):

 

e|--------------------------------------------------------------------------|
B|-----9---------9---9-h-10---9-----------12-b-r--10---9--------------9-----|
G|--------9--11------------------11--9-------------------------9--11-----9--|
D|--9-------------------------------------------------------9---------------|
A|--------------------------------------------------------------------------|
E|--------------------------------------------------------------------------|

 

BASS:

 

G|--------------------------------------------------------------------------|
D|-----------2--2--2--------------------------------------------------------|
A|--0--0--0-----------0--1---2--2--2--2--2--0-------------------------------|
E|---------------------------------------------4--2---0---0---0---0---0--0--|

 

GUITAR (Rhythm):

 

e|-----------------------------------------------------------------------------|
B|-----------------------------------------------------------------------------|
G|--2--2--2--2--2--2---4--4--4--4--4--4----------------------6--6--6--6--6--6--|
D|--2--2--2--2--2--2---4--4--4--4--4--4---2--2--2--2--2--2---6--6--6--6--6--6--|
A|--0--0--0--0--0--0---2--2--2--2--2--2---2--2--2--2--2--2---4--4--4--4--4--4--|
E|----------------------------------------0--0--0--0--0--0---------------------|

 

GUITAR (Vocals):

 

e|-----------------------------------------------------------------------------------------------|
B|----------9-------------------9-------------------9-----------------12--10--9------------------|
G|--9-h-11-----11-/-13--9---11-----11-/-13--9---11-----11-/-13--9--9-------------11-p-9--11-p-9--|
D|-----------------------------------------------------------------------------------------------|
A|-----------------------------------------------------------------------------------------------|
E|-----------------------------------------------------------------------------------------------|

 

GUITAR (Harmony):

 

e|----------------------------------------------------------------------------|
B|--------------------------------------------------------9-------------------|
G|--8--9--8-h-9------8--9--8-h-9------8--9--8-h-9------------11--9--8---------|
D|---------------9----------------9----------------9---9---------------11--9--|
A|----------------------------------------------------------------------------|
E|----------------------------------------------------------------------------|

 

BASS:

 

G|-----------------------------------------------------------------------------------------------------|
D|-----------------------------------------------------------------------------------------------------|
A|--0--0--0--0--0--0--0--0---2--2--2--2--0--0--0--0----------------------------4--4--4--4--4--2--4--2--|
E|----------------------------------------------------0--0--0--0--0--0--0--0---------------------------|

 

GUITAR (Rhythm):

 

e|---------------------------------------------------------------------------------|
B|---------------------------------------------------------------------------------|
G|--2--2--2--2--2--2---4--4--4--4--4--4---6--6---6--6--6---6--6--6--6--6--6--6--6--|
D|--2--2--2--2--2--2---4--4--4--4--4--4---6--6---6--6--6---6--6--6--6--6--6--6--6--|
A|--0--0--0--0--0--0---2--2--2--2--2--2---4--4---4--4--4---4--4--4--4--4--4--4--4--|
E|---------------------------------------------------------------------------------|

 

GUITAR (Vocals):

 

e|------------------------------------------------------------------|
B|--9--------------------------------------7-/-9--------------9-----|
G|-----11--9--8--9---6-/-8--9---6-/-8--9---------------9--11-----9--|
D|--------------------------------------------------9---------------|
A|------------------------------------------------------------------|
E|------------------------------------------------------------------|

 

GUITAR (Harmony):

 

e|-----------------------------------------------------------|
B|--10-/-12--10--9------9-----------9-----------9---10-/-12--|
G|------------------11------9-/-11------9-/-11---------------|
D|-----------------------------------------------------------|
A|-----------------------------------------------------------|
E|-----------------------------------------------------------|

 

BASS:

 

G|------------------------------------------------------------------------------------------------|
D|-----------2--2--2------------------4--4--4--------------------------------6--6--4--3--4--3-----|
A|--0--0--0-----------0--1---2--2--2-----------2--3---4--4---4--4--4---4--4--------------------4--|
E|------------------------------------------------------------------------------------------------|

 

GUITAR (Rhythm):

 

e|-----------------------------------------------------------------------------|
B|-----------------------------------------------------------------------------|
G|--2--2--2--2--2--2---4--4--4--4--4--4----------------------6--6--6--6--6--6--|
D|--2--2--2--2--2--2---4--4--4--4--4--4---2--2--2--2--2--2---6--6--6--6--6--6--|
A|--0--0--0--0--0--0---2--2--2--2--2--2---2--2--2--2--2--2---4--4--4--4--4--4--|
E|----------------------------------------0--0--0--0--0--0---------------------|

 

GUITAR (Vocals):

 

e|-----------------------------------------------------------------------------------------------|
B|----------9-------------------9-------------------9-----------------12--10--9------------------|
G|--9-h-11-----11-/-13--9---11-----11-/-13--9---11-----11-/-13--9--9-------------11-p-9--11-p-9--|
D|-----------------------------------------------------------------------------------------------|
A|-----------------------------------------------------------------------------------------------|
E|-----------------------------------------------------------------------------------------------|

 

GUITAR (Harmony):

 

e|----------------------------------------------------------------------------|
B|--------------------------------------------------------9-------------------|
G|--8--9--8-h-9------8--9--8-h-9------8--9--8-h-9------------11--9--8---------|
D|---------------9----------------9----------------9---9---------------11--9--|
A|----------------------------------------------------------------------------|

E|----------------------------------------------------------------------------|

 

BASS:

 

G|-----------------------------------------------------------------------------------------------------|
D|-----------------------------------------------------------------------------------------------------|
A|--0--0--0--0--0-----0--1---2--2--2--2--0--0---------------------------0--2---4--4--4--4--6--6--7--7--|
E|-----------------4---------------------------4--2---0--0--0--0--0--4---------------------------------|

 

GUITAR (Rhythm):

 

e|-------------------------------------------|
B|-------------------------------------------|
G|--2--2--2--2--2--2---4--4--4--4--4--4------|
D|--2--2--2--2--2--2---4--4--4--4--4--4---2--|
A|--0--0--0--0--0--0---2--2--2--2--2--2---2--|
E|----------------------------------------0--|

 

GUITAR (Vocals):

 

e|--------------------------------------|
B|-----9---------9---9-h-10---9---------|
G|--------9--11------------------11--9--|
D|--9-----------------------------------|
A|--------------------------------------|
E|--------------------------------------|

 

BASS:

 

G|-------------------------------------------------------|
D|-----------2--2--2-------------------------------------|
A|--0--0--0-----------0--1---2--2--2--2--2--0------------|
E|---------------------------------------------4--2---0--|

 

 

~ COMPLICATION ~

Complication - Tron544
00:00 / 00:00

©2019 by Fefe - Tron544

Sigueme en:

  • YouTube - White Circle
  • Facebook - White Circle
  • Instagram - White Circle
  • Twitter - White Circle
This site was designed with the
.com
website builder. Create your website today.
Start Now