CLOSER

NARUTO SHiPPUDEN

TABS ~ By Fefe (Tron544)

 

Intro:

 

GUITAR 1:

 

e|-----------------------------------------------------|

B|-----------------------------------------------------|

G|-----------------------------------------------------|

D|--(2)-x--x--x--x--x--x--x---(4)-x--x--x--x--x--x--x--|

A|--(2)-x--x--x--x--x--x--x---(4)-x--x--x--x--x--x--x--|

E|--(0)-x--x--x--x--x--x--x---(2)-x--x--x--x--x--x--x--|

 

GUITAR 2:

 

e|------------------------------------|

B|------------------------------------|

G|-----6--8--8--9--6-----6---------6--|

D|--9-----------------9---------9-----|

A|---------------------------9--------|

E|------------------------------------|

 

GUITAR 3:

 

e|------11--------------------------|

B|--12------12--14--12--14--12--14--|

G|----------------------------------|

D|----------------------------------|

A|----------------------------------|

E|----------------------------------|

 

GUITAR 1:

 

e|-----------------------------------------------------|

B|-----------------------------------------------------|

G|--(4)-x--x--x--x--x--x--x----------------------------|

D|--(4)-x--x--x--x--x--x--x---(6)-x--x--x--x--x--x--x--|

A|--(2)-x--x--x--x--x--x--x---(6)-x--x--x--x--x--x--x--|

E|----------------------------(4)-x--x--x--x--x--x--x--|

 

GUITAR 2:

 

e|-------------------------------|

B|-------------------------------|

G|--6-h-8--9--8--6--6--6---------|

D|------------------------9---9--|

A|-------------------------------|

E|-------------------------------|

 

GUITAR 3:

 

e|------11--------------------------|

B|--12------12--14--12--14--12--14--|

G|----------------------------------|

D|----------------------------------|

A|----------------------------------|

E|----------------------------------|

 

GUITAR 1:

 

e|--------------------------------------------------------------------------------------|

B|--------------------------------------------------------------------------------------|

G|------------------------------------------------------(4)-x--x--x--x--x--x------------|

D|--(2)-x--x--x--x--x--x--x---(4)-x--x--x--x--x--x--x---(4)-x--x--x--x--x--x---6--6--6--|

A|--(2)-x--x--x--x--x--x--x---(4)-x--x--x--x--x--x--x---(2)-x--x--x--x--x--x---6--6--6--|

E|--(0)-x--x--x--x--x--x--x---(2)-x--x--x--x--x--x--x--------------------------4--4--4--|

 

GUITAR 2:

 

e|------------------------------------------------------|

B|------------------------------------7-----------------|

G|--8--9--9--6-----8-----6------8--9--------------------|

D|--------------9-----9------------------9--9--8--9--9--|

A|---------------------------9--------------------------|

E|------------------------------------------------------|

 

GUITAR 3:

 

e|------11-------------------------------11--------------------------|

B|--12------12--14--12--14--12--14---12------12--14--12--14--12--14--|

G|-------------------------------------------------------------------|

D|-------------------------------------------------------------------|

A|-------------------------------------------------------------------|

E|-------------------------------------------------------------------|

 

GUITAR 1:

 

e|-----------------------------------------------------------------------------|

B|-----------------------------------------------------------------------------|

G|----------------------------------------4--4--4--4--4--4---4--4--4--4--------|

D|--2--2--2--2--2--2---4--4--4--4--4--4---4--4--4--4--4--4---4--4--4--4--2--2--|

A|--2--2--2--2--2--2---4--4--4--4--4--4---2--2--2--2--2--2---2--2--2--2--2--2--|

E|--0--0--0--0--0--0---2--2--2--2--2--2----------------------------------0--0--|

 

GUITAR 2:

 

e|-----7--6--------7-----7---------7-----7---------7-----7---------7-----7-----|

B|--7--------7--7-----7-----7---7-----7-----7---7-----7-----7---7-----7-----7--|

G|-----------------------------------------------------------------------------|

D|-----------------------------------------------------------------------------|

A|-----------------------------------------------------------------------------|

E|-----------------------------------------------------------------------------|

 

 

Verse/Estrofa:

 

GUITAR 1:

 

e|---------------------------------------------|

B|---------------------------------------------|

G|--4--4------3--3-----------------------4--4--|

D|--4--4------4--4------6--6------4--4---4--4--|

A|--2--2------1--1------6--6------4--4---2--2--|

E|----------------------4--4------2--2---------|

 

GUITAR 2:

 

e|---------------------------------------------------------|

B|---------------------------------------------------------|

G|--------6--8--8--6---------------------------------------|

D|-----9--------------9--8--9------6--8--9--9--8--6-----6--|

A|--9---------------------------6--------------------9-----|

E|---------------------------------------------------------|

 

GUITAR 1:

 

e|---------------------------------------------|

B|---------------------------------------------|

G|------------8--8------6--6-------------3--3--|

D|--2--2------8--8------6--6------4--4---4--4--|

A|--2--2------6--6------4--4------4--4---1--1--|

E|--0--0--------------------------2--2---------|

 

GUITAR 2:

 

e|-------------------------------------------------------------|

B|-------------------------------------------------------------|

G|---------------------------------------------------6--6-/-8--|

D|-----6--------------------6------6--8--9--9--8--9------------|

A|--9-----9--7--9--6--7--9------9------------------------------|

E|-------------------------------------------------------------|

 

GUITAR 1:

 

e|---------------------------------------------|

B|---------------------------------------------|

G|--4--4------3--3-----------------------4--4--|

D|--4--4------4--4------6--6------4--4---4--4--|

A|--2--2------1--1------6--6------4--4---2--2--|

E|----------------------4--4------2--2---------|

 

GUITAR 2:

 

e|---------------------------------------------------------|

B|--------------------7------------------------------------|

G|--------6--8--8--6------------------------------8--------|

D|-----9-----------------8--9------6--8--9--9--8--------6--|

A|--9---------------------------6--------------------9-----|

E|---------------------------------------------------------|

 

GUITAR 1:

 

e|-----------------------------------------------|

B|-----------------------------------------------|

G|------------8--8------6--6--6--6--6------------|

D|--2--2------8--8------6--6--6--6--6---4--4--4--|

A|--2--2------6--6------4--4--4--4--4---4--4--4--|

E|--0--0--------------------------------2--2--2--|

 

GUITAR 2:

 

e|---------------------------------------------------------|

B|---------------------------------------------------------|

G|---------------------------------------------------6--6--|

D|-----6-----------------------6------6--8--9--9--8--------|

A|--9-----9--7--9--6--6--7--9------9-----------------------|

E|---------------------------------------------------------|

CLOSER - Tron544
00:00 / 00:00
DONATE%20BUTTON%20(EN)_edited.png

Chorus/Estribillo:

 

GUITAR 1:

 

e|-----------------------------------------------------------------------------|

B|-----------------------------------------------------------------------------|

G|----------------------------------------4--4--4--4--4--4---------------------|

D|--2--2--2--2--2--2---4--4--4--4--4--4---4--4--4--4--4--4---6--6--6--6--6--6--|

A|--2--2--2--2--2--2---4--4--4--4--4--4---2--2--2--2--2--2---6--6--6--6--6--6--|

E|--0--0--0--0--0--0---2--2--2--2--2--2----------------------4--4--4--4--4--4--|

 

GUITAR 2:

 

e|-----------------------------------------------------------------|

B|-----------------------------------------------------------------|

G|-----6--8--8--9--6-----6---------6--6-h-8--9--8--6--6--6---------|

D|--9-----------------9---------9---------------------------9---9--|

A|---------------------------9-------------------------------------|

E|-----------------------------------------------------------------|

 

GUITAR 3:

 

e|------11-------------------------------11--------------------------|

B|--12------12--14--12--14--12--14---12------12--14--12--14--12--14--|

G|-------------------------------------------------------------------|

D|-------------------------------------------------------------------|

A|-------------------------------------------------------------------|

E|-------------------------------------------------------------------|

 

GUITAR 1:

 

e|-----------------------------------------------------------------------------|

B|-----------------------------------------------------------------------------|

G|----------------------------------------4--4--4--4--4--4---------------------|

D|--2--2--2--2--2--2---4--4--4--4--4--4---4--4--4--4--4--4---6--6--6--6--6--6--|

A|--2--2--2--2--2--2---4--4--4--4--4--4---2--2--2--2--2--2---6--6--6--6--6--6--|

E|--0--0--0--0--0--0---2--2--2--2--2--2----------------------4--4--4--4--4--4--|

 

GUITAR 2:

 

e|------------------------------------------------------|

B|------------------------------------7-----------------|

G|--8--9--9--6-----8-----6------8--9--------------------|

D|--------------9-----9------------------9--9--8--9--9--|

A|---------------------------9--------------------------|

E|------------------------------------------------------|

 

GUITAR 3:

 

e|------11-------------------------------11--------------------------|

B|--12------12--14--12--14--12--14---12------12--14--12--14--12--14--|

G|-------------------------------------------------------------------|

D|-------------------------------------------------------------------|

A|-------------------------------------------------------------------|

E|-------------------------------------------------------------------|

 

GUITAR 1:

 

e|-----------------------------------------------------------------------------|

B|-----------------------------------------------------------------------------|

G|----------------------------------------8--8--8--8--8--8---9--9--9--9--9--9--|

D|--2--2--2--2--2--2---4--4--4--4--4--4---8--8--8--8--8--8---9--9--9--9--9--9--|

A|--2--2--2--2--2--2---4--4--4--4--4--4---6--6--6--6--6--6---7--7--7--7--7--7--|

E|--0--0--0--0--0--0---2--2--2--2--2--2----------------------------------------|

 

GUITAR 2:

 

e|------------------------------------------------------|

B|------------------------------------------------------|

G|-----6--8--8--9--9--6--------6------8--9--8--6--6-----|

D|--9--------------------9--9------------------------9--|

A|---------------------------------9--------------------|

E|------------------------------------------------------|

 

GUITAR 3:

 

e|------11-------------------------------11--------------------------|

B|--12------12--14--12--14--12--14---12------12--14--12--14--12--14--|

G|-------------------------------------------------------------------|

D|-------------------------------------------------------------------|

A|-------------------------------------------------------------------|

E|-------------------------------------------------------------------|

 

GUITAR 1:

 

e|---------------------------------------|

B|---------------------------------------|

G|---------------------------------------|

D|--2--2--2--2--2--2---4--4--4--4--4--4--|

A|--2--2--2--2--2--2---4--4--4--4--4--4--|

E|--0--0--0--0--0--0---2--2--2--2--2--2--|

 

GUITAR 2:

 

e|-----------------------------|

B|-----------------------------|

G|-----6--8--9--6-----------6--|

D|--9--------------9--9--9-----|

A|-----------------------------|

E|-----------------------------|

 

GUITAR 3:

 

e|------11--------------------------|

B|--12------12--14--12--14--12--14--|

G|----------------------------------|

D|----------------------------------|

A|----------------------------------|

E|----------------------------------|

 

GUITAR 1:

 

e|-----------------------------------------------------------------------------|

B|-----------------------------------------------------------------------------|

G|----------------------------------------4--4--4--4--4--4---------------------|

D|--2--2--2--2--2--2---4--4--4--4--4--4---4--4--4--4--4--4---6--6--6--6--6--6--|

A|--2--2--2--2--2--2---4--4--4--4--4--4---2--2--2--2--2--2---6--6--6--6--6--6--|

E|--0--0--0--0--0--0---2--2--2--2--2--2----------------------4--4--4--4--4--4--|

 

GUITAR 2:

 

e|---------------------------------------------------------------------|

B|---------------------------------------------------------------------|

G|--------6--8--8--9--9--6-----6------------6--8--9--9--6--6--6--------|

D|-----9--------------------9------------9-----------------------9--9--|

A|--9------------------------------9--9--------------------------------|

E|---------------------------------------------------------------------|

 

GUITAR 3:

 

e|------11-------------------------------11--------------------------|

B|--12------12--14--12--14--12--14---12------12--14--12--14--12--14--|

G|-------------------------------------------------------------------|

D|-------------------------------------------------------------------|

A|-------------------------------------------------------------------|

E|-------------------------------------------------------------------|

 

GUITAR 1:

 

e|-----------------------------------------------------------------------------|

B|-----------------------------------------------------------------------------|

G|----------------------------------------4--4--4--4--4--4---------------------|

D|--2--2--2--2--2--2---4--4--4--4--4--4---4--4--4--4--4--4---6--6--6--6--6--6--|

A|--2--2--2--2--2--2---4--4--4--4--4--4---2--2--2--2--2--2---6--6--6--6--6--6--|

E|--0--0--0--0--0--0---2--2--2--2--2--2----------------------4--4--4--4--4--4--|

 

GUITAR 2:

 

e|------------------------------------------------------------------|

B|------------------------------------------------7-----------------|

G|-----8--9--9--6--------8-----6---------8--9--9--------------------|

D|--9--------------9--9-----9------------------------9--9--8--9--9--|

A|---------------------------------9--9-----------------------------|

E|------------------------------------------------------------------|

 

GUITAR 3:

 

e|------11-------------------------------11--------------------------|

B|--12------12--14--12--14--12--14---12------12--14--12--14--12--14--|

G|-------------------------------------------------------------------|

D|-------------------------------------------------------------------|

A|-------------------------------------------------------------------|

E|-------------------------------------------------------------------|

 

GUITAR 1:

 

e|-----------------------------------------------------------------------------|

B|-----------------------------------------------------------------------------|

G|----------------------------------------8--8--8--8--8--8---9--9--9--9--9--9--|

D|--2--2--2--2--2--2---4--4--4--4--4--4---8--8--8--8--8--8---9--9--9--9--9--9--|

A|--2--2--2--2--2--2---4--4--4--4--4--4---6--6--6--6--6--6---7--7--7--7--7--7--|

E|--0--0--0--0--0--0---2--2--2--2--2--2----------------------------------------|

 

GUITAR 2:

 

e|------------------------------------------------------------------------|

B|------------------------------------------------------------------------|

G|-----6--8--8--9--9--6--------8-----6---------8--9--9--8--6--6--6--8-----|

D|--9--------------------9--9-----9------------------------------------9--|

A|---------------------------------------9--9-----------------------------|

E|------------------------------------------------------------------------|

 

GUITAR 3:

 

e|------11-------------------------------11--------------------------|

B|--12------12--14--12--14--12--14---12------12--14--12--14--12--14--|

G|-------------------------------------------------------------------|

D|-------------------------------------------------------------------|

A|-------------------------------------------------------------------|

E|-------------------------------------------------------------------|

 

GUITAR 1:

 

e|-------------------------------------------|

B|-------------------------------------------|

G|----------------------------------------4--|

D|--2--2--2--2--2--2---4--4--4--4--4--4---4--|

A|--2--2--2--2--2--2---4--4--4--4--4--4---2--|

E|--0--0--0--0--0--0---2--2--2--2--2--2------|

 

GUITAR 2:

 

e|------------------------------------|

B|------------------------------------|

G|-----6--8--9--6-----------6---------|

D|--9--------------9--9--9------8--9--|

A|------------------------------------|

E|------------------------------------|

 

GUITAR 3:

 

e|------11--------------------------|

B|--12------12--14--12--14--12--14--|

G|----------------------------------|

D|----------------------------------|

A|----------------------------------|

E|----------------------------------|

©2015 by Fefe - Tron544

Sigueme en:

  • YouTube - White Circle
  • Facebook - White Circle
  • Instagram - White Circle
  • Twitter - White Circle
This site was designed with the
.com
website builder. Create your website today.
Start Now