~ CLOCK STRIKES ~

TABLATURAS ~ By Fefe - Tron544
 

Verse/Estrofa: x4

 

e|----------------------------------------------------------------------|

B|----------------------------------------------------------------------|

G|----------------------------------------------------------------------|

D|-----8--------8--------8--------8-------8--------8--------8--------8--|

A|--------6--------6--------6----------------6--------6--------6--------|

E|--8--------8--------8--------8-------8--------8--------8--------8-----|

 

e|----------------------------------------------------------------------|

B|----------------------------------------------------------------------|

G|----------------------------------------------------------------------|

D|-----8--------8--------8--------8-------8--------8--------8--------8--|

A|--------6--------6--------6----------------6--------6--------6--------|

E|--4--------4--------4--------4-------6--------6--------6--------6-----|

 

 

Pre-Chorus/Pre-Estribillo:

 

e|-----6--------6--------6--------6--------6-------------6--------6--------6--------|

B|--------4--------4--------4--------4--------4-------------4--------4--------4-----|

G|--5--------5--------5--------5--------5--------5----3--------3--------3--------3--|

D|----------------------------------------------------------------------------------|

A|----------------------------------------------------------------------------------|

E|----------------------------------------------------------------------------------|

 

 

Chorus/Estribillo: x2

 

e|---------------------------------------------------------------------------------------------------------|

B|---------------------------------------------------------------------------------------------------------|

G|--8--8--8--8--8--8--8--8--8-------------------------------5--5--5--5--5--5--5--5--5----------------------|

D|--8--8--8--8--8--8--8--8--8---8--8--8--8--8--8--8--8--8---5--5--5--5--5--5--5--5--5---6--6--6---8--8--8--|

A|--6--6--6--6--6--6--6--6--6---8--8--8--8--8--8--8--8--8---3--3--3--3--3--3--3--3--3---6--6--6---8--8--8--|

E|------------------------------6--6--6--6--6--6--6--6--6-------------------------------4--4--4---6--6--6--|

 

 

Verse/Estrofa: x2

 

e|----------------------------------------------------------------------|

B|----------------------------------------------------------------------|

G|----------------------------------------------------------------------|

D|-----8--------8--------8--------8-------8--------8--------8--------8--|

A|--------6--------6--------6----------------6--------6--------6--------|

E|--8--------8--------8--------8-------8--------8--------8--------8-----|

 

e|----------------------------------------------------------------------|

B|----------------------------------------------------------------------|

G|----------------------------------------------------------------------|

D|-----8--------8--------8--------8-------8--------8--------8--------8--|

A|--------6--------6--------6----------------6--------6--------6--------|

E|--4--------4--------4--------4-------6--------6--------6--------6-----|

 

 

Second Pre-Chorus/Segundo Pre-Estribillo:

 

e|--------------------------|

B|--------------------------|

G|--------------------------|

D|--6--6--6---6----8--8--8--|

A|--6--6--6---6----8--8--8--|

E|--4--4--4---4----6--6--6--|

 

 

Chorus/Estribillo: x2

 

e|---------------------------------------------------------------------------------------------------------|

B|---------------------------------------------------------------------------------------------------------|

G|--8--8--8--8--8--8--8--8--8-------------------------------5--5--5--5--5--5--5--5--5----------------------|

D|--8--8--8--8--8--8--8--8--8---8--8--8--8--8--8--8--8--8---5--5--5--5--5--5--5--5--5---6--6--6---8--8--8--|

A|--6--6--6--6--6--6--6--6--6---8--8--8--8--8--8--8--8--8---3--3--3--3--3--3--3--3--3---6--6--6---8--8--8--|

E|------------------------------6--6--6--6--6--6--6--6--6-------------------------------4--4--4---6--6--6--|

 

 

Bridge/Puente:

 

  /~~~~~~~~~~~~( REPEAT x4 / REPITE x4 )~~~~~~~~~~~~\ /~~~~~~~( REPEAT x3 / REPITE x3 )~~~~~~\

e|---------------------------------------------------|----------------------------------------|

B|---------------------------------------------------|--9----8----6----4----9----8----6----4--|

G|--8--8--8--8--8--8--8--8---8--8--8--8--8--8--8--8--|--8----8----7----3----8----8----7----3--|

D|--8--8--8--8--8--8--8--8---8--8--8--8--8--8--8--8--|----------------------------------------|

A|--6--6--6--6--6--6--6--6---6--6--6--6--6--6--6--6--|----------------------------------------|

E|---------------------------------------------------|----------------------------------------|

 

e|---------------------------------------------------------------------------------------|

B|--9----8----6----4----9----8-----------------------------------------------------------|

G|--8----8----7----3----8----8-----------------------------------------------------------|

D|--------------------------------8--8--8--8--8--8--8--8--8--8---8--8--8--8--8--8--8--8--|

A|--------------------------------8--8--8--8--8--8--8--8--8--8---8--8--8--8--8--8--8--8--|

E|--------------------------------6--6--6--6--6--6--6--6--6--6---6--6--6--6--6--6--6--6--|

 

 

Chorus/Estribillo: x4

 

e|---------------------------------------------------------------------------------------------------------|

B|---------------------------------------------------------------------------------------------------------|

G|--8--8--8--8--8--8--8--8--8-------------------------------5--5--5--5--5--5--5--5--5----------------------|

D|--8--8--8--8--8--8--8--8--8---8--8--8--8--8--8--8--8--8---5--5--5--5--5--5--5--5--5---6--6--6---8--8--8--|

A|--6--6--6--6--6--6--6--6--6---8--8--8--8--8--8--8--8--8---3--3--3--3--3--3--3--3--3---6--6--6---8--8--8--|

E|------------------------------6--6--6--6--6--6--6--6--6-------------------------------4--4--4---6--6--6--|

 

 

Outro:

 

e|-----|

B|-----|

G|--8--|

D|--8--|

A|--6--|

E|-----|

Clock Strikes - Tron544
00:00 / 00:00

©2019 by Fefe - Tron544

Sigueme en:

  • YouTube - White Circle
  • Facebook - White Circle
  • Instagram - White Circle
  • Twitter - White Circle
This site was designed with the
.com
website builder. Create your website today.
Start Now