Chikatto Chika Chika​♡

KAGUYA-SAMA: LOVE IS WAR

CHORDS ~ By Fefe (Tron544)

 

Chords used/Acordes utilizados:

Am: x.0.2.2.1.0  -  A: x.0.2.2.2.0
D: x.x.0.2.3.2  -  Dm: x.x.0.2.3.1 or x.5.7.7.6.5
E: 0.2.2.1.0.0  -  E7/G#: 4.2.0.1.0.0  -  Em: x.7.9.9.8.7
F: 1.3.3.2.1.1
G: 3.5.5.4.3.3

 

   E
   Yoi, yoi, don da yo!

 


| Am | D | Am | D |

 


   Am             D
   Shuuchiin gakuen
   Am                 D
   Shuuchi no jijitsu
   Am               D
   Minna akogare no seito kai
   Am                  D
   Poku poku poku poku poku poku po

   Am                D
   Kaichou to Kaguya-san
   Am                 D
   Ishigami-kun to shoki no Chika
   Am            D          F
   Gooruden menbaa to omoimasen ka?
   G
   Shoki no Chika, shoki no Chika, raa!

   Am                Dm
   Midareta kuni de ikiru watashi tachi
   F                E        E7/G#
   Dare mo ga honne kakushiteru kedo
   Am              Dm                F
   Donna mondai mo rabu tantei Chika ga
        G
   Kaiketsu suru wa... IQ3 de mo makasenasai!

   Am                      Dm
   Shuki shuki shoki shoki shoki settei
   F                E         E7/G#
   Ukauka shitetara sugu sotsugyou
   Am                     Dm
   Chu ki chu ki dokidoki foochun teraa
   Dm         Em         F           G   A
   Itsu datte dare datte koi shitara hiroin
   Dm         Em     F           G
   Chikara no kagiri kagayaku no da yo
   F
   Chikatto Chikatto Chika Chika

 


| Am | D |

 


   Am                       D
   Shuki shuki shoki shoki
   Am                     D
   Chuki chuki doki doki
   F
   Shuki shuki shoki shoki
   G
   Chuki chuki doki doki
                  A
   Mori e okaeri

Chikatto Chika Chika​♡ - Tron544
00:00 / 00:00
DONATE%20BUTTON%20(EN)_edited.png

TABS ~ By Fefe (Tron544)

 

Intro:

e|-----12-----12--------12------------|
B|------------------------------------|
G|--9------9------9---9---------------|
D|------------------------------------|
A|------------------------------------|
E|------------------------------------|

 


Verse/Estrofa:

e|----------------------------------------------|
B|--10--8------------------10--8-8--------------|
G|--------9--9-7----7--------------9-----7------|
D|---------------10-------------------10--------|
A|----------------------------------------------|
E|----------------------------------------------|

e|--------------------------10-----------------------------------10----|
B|--10--8-8------------------------8-10-8-10-8-10-8-10-8-10-8-10-------|
G|----------9-9-7-----7------------------------------------------------|
D|----------------10-----10--------------------------------------------|
A|---------------------------------------------------------------------|
E|---------------------------------------------------------------------|

e|------------------------------------------------10-10-------|
B|--10--8------------------10-10-8-8--------------------------|
G|--------9--9-7----7----------------9--7----7----------------|
D|---------------10-----------------------10---10-------------|
A|------------------------------------------------------------|
E|------------------------------------------------------------|

e|--------------------------------------------------------------|
B|--10--8-------------------------------------------------------|
G|--------9--9-7----7-----7-----7-----9--7b---------------------|
D|---------------10----10----10---10----------------------------|
A|--------------------------------------------------------------|
E|--------------------------------------------------------------|

 


Pre-Chorus/Pre-Estribillo:

e|--------------------------------------------------------------------|
B|---------------------------8----------------------------------------|
G|------9-9-7-7-9-9-10-10-10---10-9-7------9-9-7-7-9--7-7-7-9-7-------|
D|--7-7--------------------------------7-7----------------------10-9--|
A|--------------------------------------------------------------------|
E|--------------------------------------------------------------------|

e|--------------------------------------12----------------------|
B|-------------------------------------------------5------5-----|
G|------9-9-7-7-9-9-10-10-10--10--10-10--------7-7---7--7---7b--|
D|--7-7---------------------------------------------------------|
A|--------------------------------------------------------------|
E|--------------------------------------------------------------|

 


Chorus/Estribillo:

e|------|-----------------------------------------------------------------------|
B|--10--|---10-8-8-10-10-8-8-10-10-8--10---10--10-8-8-------------------9---10--|
G|------|---------------------------------------------9-9-------7-7-7-7---------|
D|------|-------------------------------------------------10-10-----------------|
A|------|-----------------------------------------------------------------------|
E|------|-----------------------------------------------------------------------|

e|---------------------------------------------------------------------------|
B|---10-8-8-10-10-8-8---------6-6-6--8-8-8-8-10-10-10-10-8--10/12--10--------|
G|---------------------------------------------------------------------------|
D|---------------------------------------------------------------------------|
A|---------------------------------------------------------------------------|
E|---------------------------------------------------------------------------|

e|---------------------------------------------17-------------------------------17--|
B|----------------------------------------------------------------------------------|
G|--14-12----------------12-12----12-14/16-14------14-14--14-14-14--14-14-14-14-----|
D|--------14-12-14-12-14-------14---------------------------------------------------|
A|----------------------------------------------------------------------------------|
E|----------------------------------------------------------------------------------|


Outro:

e|-----------------------------------------------------------------------------|
B|-----------------10--10-8-8-10-10-8-8--------10--10-8-8-10-10-8-8--------10--|
G|-----------------------------------------------------------------------------|
D|-----------------------------------------------------------------------------|
A|-----------------------------------------------------------------------------|
E|-----------------------------------------------------------------------------|

e|---------------------------------------------------------|
B|---10-8-8-10-10-8-8-10-10-8-8-8-8-8-10-------------------|
G|---------------------------------------------------------|
D|---------------------------------------------------------|
A|---------------------------------------------------------|
E|---------------------------------------------------------|

©2015 by Fefe - Tron544

Sigueme en:

  • YouTube - White Circle
  • Facebook - White Circle
  • Instagram - White Circle
  • Twitter - White Circle
This site was designed with the
.com
website builder. Create your website today.
Start Now