CHANGE

BLEACH

TABS ~ By Fefe (Tron544)

 

Intro:

 

GUITAR 1:

 

e|-------------------------------------------------------|

B|-------------------------------------------------------|

G|--(9)-x--x--x---x--x--x--x---(5)-x--x--x---x--x--x--x--|

D|--(9)-x--x--x---x--x--x--x---(5)-x--x--x---x--x--x--x--|

A|--(7)-x--x--x---x--x--x--x---(3)-x--x--x---x--x--x--x--|

E|-------------------------------------------------------|

 

GUITAR 2:

 

e|-------------------------------------------------------|

B|--15---------------------------------------------------|

G|-------12--14--12--14--12--14--12--14--16--14--12------|

D|---------------------------------------------------12--|

A|-------------------------------------------------------|

E|-------------------------------------------------------|

 

GUITAR 1:

 

e|-------------------------------------------------------|

B|-------------------------------------------------------|

G|-----------------------------(7)-x--x--x---x--x--x--x--|

D|--(5)-x--x--x---x--x--x--x---(7)-x--x--x---x--x--x--x--|

A|--(5)-x--x--x---x--x--x--x---(5)-x--x--x---x--x--x--x--|

E|--(3)-x--x--x---x--x--x--x-----------------------------|

 

GUITAR 2:

 

e|----------------------------------------------------------|

B|------15--13--12------------------------------------------|

G|------------------14--14--12--14--12--14--12--14--16--16--|

D|--12------------------------------------------------------|

A|----------------------------------------------------------|

E|----------------------------------------------------------|

 

GUITAR 1:

 

e|-------------------------------------------------------|

B|-------------------------------------------------------|

G|--(9)-x--x--x---x--x--x--x---(5)-x--x--x---x--x--x--x--|

D|--(9)-x--x--x---x--x--x--x---(5)-x--x--x---x--x--x--x--|

A|--(7)-x--x--x---x--x--x--x---(3)-x--x--x---x--x--x--x--|

E|-------------------------------------------------------|

 

GUITAR 2:

 

e|-------------------------------------------------------|

B|--15---------------------------------------------------|

G|-------12--14--12--14--12--14--12--14--12--14--16--16--|

D|-------------------------------------------------------|

A|-------------------------------------------------------|

E|-------------------------------------------------------|

 

GUITAR 1:

 

e|-------------------------------------------------------|-----|

B|-------------------------------------------------------|-----|

G|-----------------------------(7)-x--x--x---x--x--x--x--|--5--|

D|--(5)-x--x--x---x--x--x--x---(7)-x--x--x---x--x--x--x--|--5--|

A|--(5)-x--x--x---x--x--x--x---(5)-x--x--x---x--x--x--x--|--3--|

E|--(3)-x--x--x---x--x--x--x-----------------------------|-----|

 

GUITAR 2:

 

e|--------------------------------------------------------|-----------|

B|------15--13--13--12--12--------------------------------|-----------|

G|--------------------------14--14--12--14--------11--12--|--11---12--|

D|--12----------------------------------------14----------|-----------|

A|--------------------------------------------------------|-----------|

E|--------------------------------------------------------|-----------|

 

GUITAR 1:

 

e|------------|------------|

B|------------|------------|

G|--6------2--|---------4--|

D|--6------2--|--2------4--|

A|--4------0--|--2------2--|

E|------------|--0---------|

 

GUITAR 2:

 

e|----------------------------------------------|------------------------------------------------------|

B|----------------------------------------------|------------------------------------------------------|

G|------------------13--13--11------13--11------|--13--11------13--11------11--11------11--13--11------|

D|--11--11------11--------------14----------14--|----------14----------14----------14--------------14--|

A|----------14----------------------------------|------------------------------------------------------|

E|----------------------------------------------|------------------------------------------------------|

 

 

Verse/Estrofa:

 

GUITAR 1:

 

e|----------------------------------------------------------------------------------------------------------|

B|----------------------------------------------------------------------------------------------------------|

G|--(6)-x--x--x---x--x--x--x--(2)-x--x--x---x--x--x--x----------------------------(4)-x--x--x---x--x--x--x--|

D|--(6)-x--x--x---x--x--x--x--(2)-x--x--x---x--x--x--x--(2)-x--x--x---x--x--x--x--(4)-x--x--x---x--x--x--x--|

A|--(4)-x--x--x---x--x--x--x--(0)-x--x--x---x--x--x--x--(2)-x--x--x---x--x--x--x--(2)-x--x--x---x--x--x--x--|

E|------------------------------------------------------(0)-x--x--x---x--x--x--x----------------------------|

 

GUITAR 2:

 

e|------------------------------------------------------------------------------------------------|

B|------------------------------------------------------------------------------------------------|

G|------9--13------9--13------9--13--9---9--11--9--11--9--11--9--11--9--11--11--11--13--11--9-----|

D|--11---------11---------11-------------------------------------------------------------------9--|

A|------------------------------------------------------------------------------------------------|

E|------------------------------------------------------------------------------------------------|

 

GUITAR 1:

 

e|----------------------------------------------------------------------------------------------------------|

B|----------------------------------------------------------------------------------------------------------|

G|--(6)-x--x--x---x--x--x--x--(2)-x--x--x---x--x--x--x----------------------------(4)-x--x--x---x--x--x--x--|

D|--(6)-x--x--x---x--x--x--x--(2)-x--x--x---x--x--x--x--(2)-x--x--x---x--x--x--x--(4)-x--x--x---x--x--x--x--|

A|--(4)-x--x--x---x--x--x--x--(0)-x--x--x---x--x--x--x--(2)-x--x--x---x--x--x--x--(2)-x--x--x---x--x--x--x--|

E|------------------------------------------------------(0)-x--x--x---x--x--x--x----------------------------|

 

GUITAR 2:

 

e|----------------------------------------------------------------------------------|

B|----------------------------------------------------------------------------------|

G|------9--13------9--13------9--13--9---9--11--9---9--9--11--9--11--9---13--11--9--|

D|--11---------11---------11--------------------------------------------------------|

A|----------------------------------------------------------------------------------|

E|----------------------------------------------------------------------------------|

 

GUITAR 1:

 

e|---------------------------------------|---------------------------------------|

B|---------------------------------------|---------------------------------------|

G|--6--x--x--x--x--6---2--x--x--2--x--2--|---------------------4--x--x--4--x--4--|

D|--6--x--x--x--x--6---2--x--x--2--x--2--|--2--x--x--x--x--2---4--x--x--4--x--4--|

A|--4--x--x--x--x--4---0--x--x--0--x--0--|--2--x--x--x--x--2---2--x--x--2--x--2--|

E|---------------------------------------|--0--x--x--x--x--0---------------------|

 

GUITAR 2:

 

e|--------------------------------------------|----------------------------------------------------------|

B|--12--12------------------------------------|----------------------------------------------------------|

G|----------9--9--9--11--9--11--13--11--9-----|--9--9--13--13--13--9--9--9--11--9--11--13--11--9---------|

D|-----------------------------------------9--|---------------------------------------------------11--9--|

A|--------------------------------------------|----------------------------------------------------------|

E|--------------------------------------------|----------------------------------------------------------|

 

GUITAR 1:

 

e|---------------------------------------|---------------------------------------|

B|---------------------------------------|---------------------------------------|

G|--6--x--x--x--x--6---2--x--x--2--x--2--|---------------------4--x--x--4--x--4--|

D|--6--x--x--x--x--6---2--x--x--2--x--2--|--2--x--x--x--x--2---4--x--x--4--x--4--|

A|--4--x--x--x--x--4---0--x--x--0--x--0--|--2--x--x--x--x--2---2--x--x--2--x--2--|

E|---------------------------------------|--0--x--x--x--x--0---------------------|

 

GUITAR 2:

 

e|-------------------------------------|------------------------------------|

B|--12--12-----------------------------|------------------------------------|

G|----------9--9--9--11--9--11--13--9--|--11--11--13--14--13--11--9--9------|

D|-------------------------------------|--------------------------------11--|

A|-------------------------------------|------------------------------------|

E|-------------------------------------|------------------------------------|

chAngE - Tron544
00:00 / 00:00
DONATE%20BUTTON%20(EN)_edited.png

Pre-Chorus/Pre-Estribillo:

 

e|------------|------------|

B|------------|------------|

G|--2------4--|--6------4--|

D|--2------4--|--6------4--|

A|--0------2--|--4------2--|

E|------------|------------|

 

e|---------------------------------|----------------------------------------------------------|

B|---------------------------------|------14--12--12------------------------------------------|

G|---------------------------------|------------------13--13--11--9--11--13---------------13--|

D|-----2--4--9---4--4--2--4--2--1--|--11--------------------------------------11--11--11------|

A|--4------------------------------|----------------------------------------------------------|

E|---------------------------------|----------------------------------------------------------|

 

e|------------|----------------------|

B|------------|----------------------|

G|------------|---------(4)-x--x--4--|

D|--7------6--|--4------(4)-x--x--4--|

A|--7------6--|--4------(2)-x--x--2--|

E|--5------4--|--2-------------------|

 

e|----------------------------|----------------------------------|

B|----------------------------|----------------------------------|

G|--11--9----------13--11--9--|--9--11--9--11--9--11--9--11--13--|

D|---------11--11-------------|----------------------------------|

A|----------------------------|----------------------------------|

E|----------------------------|----------------------------------|

 

 

Chorus/Estribillo:

 

GUITAR 1:

 

e|------------|

B|------------|

G|--9------5--|

D|--9------5--|

A|--7------3--|

E|------------|

 

GUITAR 2:

 

e|-------------------------------------------------------|

B|--15---------------------------------------------------|

G|-------12--14--12--14--12--14--12--14--16--14--12------|

D|---------------------------------------------------12--|

A|-------------------------------------------------------|

E|-------------------------------------------------------|

 

GUITAR 1:

 

e|------------|

B|------------|

G|---------7--|

D|--5------7--|

A|--5------5--|

E|--3---------|

 

GUITAR 2:

 

e|----------------------------------------------------------|

B|------15--13--12------------------------------------------|

G|------------------14--14--12--14--12--14--12--14--16--16--|

D|--12------------------------------------------------------|

A|----------------------------------------------------------|

E|----------------------------------------------------------|

 

GUITAR 3:

 

e|-----7-----------------------|-----------------------------------|

B|--------8----------8---------|----------10---------------10------|

G|--9--------9----------9------|------12------12-------11------11--|

D|---------------10--------10--|--12---------------12--------------|

A|-----------------------------|-----------------------------------|

E|-----------------------------|-----------------------------------|

 

GUITAR 1:

 

e|------------|------------|

B|------------|------------|

G|--4------5--|---------7--|

D|--4------5--|--5------7--|

A|--2------3--|--5------5--|

E|------------|--3---------|

 

GUITAR 2:

 

e|--------------------------|----------------------------------------------------|

B|--------------------------|--------------15------------------------------------|

G|--11--14--12--------------|--16--16--16------16--12--12--14--16----16--14--12--|

D|--------------14--12--12--|----------------------------------------------------|

A|--------------------------|----------------------------------------------------|

E|--------------------------|----------------------------------------------------|

 

GUITAR 3:

 

e|-----------------------------|------------------------------------|

B|-----7-------------8---------|----------10------------------------|

G|--------7-------------9------|------12------------11--12--11------|

D|--9--------9---10--------10--|--12------------12--------------12--|

A|-----------------------------|------------------------------------|

E|-----------------------------|------------------------------------|

 

GUITAR 1:

 

e|------------|------------|

B|------------|------------|

G|--9------5--|---------7--|

D|--9------5--|--5------7--|

A|--7------3--|--5------5--|

E|------------|--3---------|

 

GUITAR 2:

 

e|----------------------------------------------------------------------------------------------------------|

B|--15------------------------------------------------------15--13--13--12--12------------------------------|

G|------12--14--12--14--12--14--12--14--12--14--16--16--------------------------14--14--12--14-------11--12-|

D|------------------------------------------------------12---------------------------------------14---------|

A|----------------------------------------------------------------------------------------------------------|

E|----------------------------------------------------------------------------------------------------------|

 

GUITAR 3:

 

e|-----7-----------------------|-----------------------------------|

B|--------8----------8---------|----------10---------------10------|

G|--9--------9----------9------|------12------12-------11------11--|

D|---------------10--------10--|--12---------------12--------------|

A|-----------------------------|-----------------------------------|

E|-----------------------------|-----------------------------------|

 

GUITAR 1:

 

e|------------|------------|

B|------------|------------|

G|--5------7--|--9------9--|

D|--5------7--|--9------9--|

A|--3------5--|--7------7--|

E|------------|------------|

 

GUITAR 2:

 

e|--------------------------------------------------------------|

B|------------------13------------------------------13------15--|

G|------16--16--16------16--16--14--12--16--16--16------16------|

D|--12----------------------------------------------------------|

A|--------------------------------------------------------------|

E|--------------------------------------------------------------|

 

GUITAR 1:

 

e|------------|-----|

B|------------|-----|

G|--5------7--|--5--|

D|--5------7--|--5--|

A|--3------5--|--3--|

E|------------|-----|

 

GUITAR 2:

 

e|------------------------|------------------------------------------------------|

B|--15-b--15--------------|--------------13--15--15------------------------------|

G|------------------------|--16--16--16--------------12--12--14--14--16--14--16--|

D|----------------12--12--|------------------------------------------------------|

A|------------------------|------------------------------------------------------|

E|------------------------|------------------------------------------------------|

 

 

Outro:

 

GUITAR 1:

 

e|------------|------------|

B|------------|------------|

G|--6------2--|---------4--|

D|--6------2--|--2------4--|

A|--4------0--|--2------2--|

E|------------|--0---------|

 

GUITAR 2:

 

e|----------------------------------------------|------------------------------------------------------|

B|----------------------------------------------|------------------------------------------------------|

G|------------------13--13--11------13--11------|--13--11------13--11------11--11------11--13--11------|

D|--11--11------11--------------14----------14--|----------14----------14----------14--------------14--|

A|----------14----------------------------------|------------------------------------------------------|

E|----------------------------------------------|------------------------------------------------------|

©2015 by Fefe - Tron544

Sigueme en:

  • YouTube - White Circle
  • Facebook - White Circle
  • Instagram - White Circle
  • Twitter - White Circle
This site was designed with the
.com
website builder. Create your website today.
Start Now