CHA-LA HEAD CHA-LA

DRAGON BALL Z

TABS ~ By Fefe (Tron544)

 

Intro:

 

GUITAR 2:

 

e|------------------------------------------------------|

B|--t-12-p-7-p-5--t-12-t-12-p-7-p-5--t-12-t-12-p-7-p-5--|

G|------------------------------------------------------|

D|------------------------------------------------------|

A|------------------------------------------------------|

E|------------------------------------------------------|

 

GUITAR 1:

 

e|--(7)-x--7---x--7--7--x--7---7--x--x--x--7---x--7--|

B|--(9)-x--10--x--9--9--x--10--9--x--x--x--10--x--9--|

G|--(9)-x--9---x--9--9--x--9---9--x--x--x--9---x--9--|

D|--(9)-x--9---x--9--9--x--9---9--x--x--x--9---x--9--|

A|--(7)-x--7---x--7--7--x--7---7--x--x--x--7---x--7--|

E|---------------------------------------------------|

 

GUITAR 2:

 

e|--10--9--5--10--9----10--9--|

B|----------------------------|

G|--7---6--2--7---6----7---6--|

D|----------------------------|

A|----------------------------|

E|----------------------------|

GUITAR 1:

 

e|--5--5--5---5--3--3--3--|

B|--7--7--7---7--5--5--5--|

G|--7--7--7---7--5--5--5--|

D|--7--7--7---7--5--5--5--|

A|--5--5--5---5--3--3--3--|

E|------------------------|

 

GUITAR 2:

 

e|--7--7--7------------|

B|---------------8-----|

G|--4--4--4------10-b--|

D|---------------------|

A|---------------------|

E|---------------------|

 

 

Verse/Estrofa:

 

GUITAR 1:

 

e|-----------------------------------------------------------------------------------------------------|

B|-----------------------------------------------------------------------------------------------------|

G|--(9)-x--9--x--9--x--x--9--x--9--x--x--x--x--x--x---(7)-x--7--x--7--x--x--7--x--7--x--x--x--x--x--x--|

D|--(9)-x--9--x--9--x--x--9--x--9--x--x--x--x--x--x---(7)-x--7--x--7--x--x--7--x--7--x--x--x--x--x--x--|

A|--(7)-x--7--x--7--x--x--7--x--7--x--x--x--x--x--x---(5)-x--5--x--5--x--x--5--x--5--x--x--x--x--x--x--|

E|-----------------------------------------------------------------------------------------------------|

 

GUITAR 2:

 

e|-------------------------------------------------|

B|-------------------------------------------------|

G|-----------------------------------9----------9--|

D|--7--6-----9--9--7--6--9--9--9--7-------9--7-----|

A|--------7----------------------------------------|

E|-------------------------------------------------|

 

GUITAR 1:

 

e|---------------------------------------------------------------------------------------|

B|---------------------------------------------------------------------------------------|

G|--(5)-x--5--x--5--x--x--5--x--5--x--x--x--x--x--x--------------------------4--x--x--4--|

D|--(5)-x--5--x--5--x--x--5--x--5--x--x--x--x--x--x---(5)-x--5--x--5--x--x---4--x--x--4--|

A|--(3)-x--3--x--3--x--x--3--x--3--x--x--x--x--x--x---(5)-x--5--x--5--x--x---2--x--x--2--|

E|----------------------------------------------------(3)-x--3--x--3--x--x---------------|

 

GUITAR 2:

 

e|-----------------------------------------------------------|

B|-----------------------------------------------------------|

G|----------------------------7--7---------------------------|

D|--------------7---9---10----------10--10--9--7------7-h-9--|

A|--7--9--10--------------------------------------10---------|

E|-----------------------------------------------------------|

 

GUITAR 3:

 

e|-----------------------------------------------------------------------------------------|

B|--------13--------t-12-p-7-p-5--t-12-t-12-p-7-p-5--t-12-t-12-p-7-p-5--t-12-t-12-p-7-p-5--|

G|--14-b-----------------------------------------------------------------------------------|

D|-----------------------------------------------------------------------------------------|

A|-----------------------------------------------------------------------------------------|

E|-----------------------------------------------------------------------------------------|

 

GUITAR 1:

 

e|-----------------------------------------------------------------------------------------------------|

B|-----------------------------------------------------------------------------------------------------|

G|--(9)-x--9--x--9--x--x--9--x--9--x--x--x--x--x--x---(7)-x--7--x--7--x--x--7--x--7--x--x--x--x--x--x--|

D|--(9)-x--9--x--9--x--x--9--x--9--x--x--x--x--x--x---(7)-x--7--x--7--x--x--7--x--7--x--x--x--x--x--x--|

A|--(7)-x--7--x--7--x--x--7--x--7--x--x--x--x--x--x---(5)-x--5--x--5--x--x--5--x--5--x--x--x--x--x--x--|

E|-----------------------------------------------------------------------------------------------------|

 

GUITAR 2:

 

e|-----------------------------------------------------|

B|-----------------------------------------------------|

G|---------------------------------------9----------9--|

D|--7--6---------9--9--7--6--9--9--9--7-------9--7-----|

A|--------7---7----------------------------------------|

E|-----------------------------------------------------|

 

GUITAR 1:

 

e|--------------------------------------------------------------------------------------|

B|--------------------------------------------------------------------------------------|

G|--(5)-x--5--x--5--x--x--5--x--5--x--x--x--x--x--x---(4)-x--4--x--4--x--x--4--x--x--4--|

D|--(5)-x--5--x--5--x--x--5--x--5--x--x--x--x--x--x---(4)-x--4--x--4--x--x--4--x--x--4--|

A|--(3)-x--3--x--3--x--x--3--x--3--x--x--x--x--x--x---(2)-x--2--x--2--x--x--2--x--x--2--|

E|--------------------------------------------------------------------------------------|

 

GUITAR 2:

 

e|-------------------------------------------------|

B|-------------------------------------------------|

G|----------------------------7--------------------|

D|--------------7---9---10--------10--10--9--9--9--|

A|--7--9--10---------------------------------------|

E|-------------------------------------------------|

CHA-LA HEAD CHA-LA - Tron544
00:00 / 00:00
DONATE%20BUTTON%20(EN)_edited.png

Pre-Chorus/Pre-Estribillo:

 

GUITAR 1:

 

e|-----------------------------------------------------------------------------|

B|-----------------------------------------------------------------------------|

G|--------6-----------6------------8-----------8------------9-----------9---9--|

D|-----6-----6-----6-----6------8-----8-----8-----8------9-----9-----9------9--|

A|--4-----------4------------6-----------6------------7-----------7---------7--|

E|-----------------------------------------------------------------------------|

 

GUITAR 2:

 

e|-----------------------------------------------|

B|-----------------------------------------------|

G|--6----------6---------------------------------|

D|-------6--6-----9---7---6-------6-h-7----6--6--|

A|----------------------------9------------------|

E|-----------------------------------------------|

 

GUITAR 3:

 

e|-----------------|

B|-----------------|

G|--9-(PH)-9-(PH)--|

D|-----------------|

A|-----------------|

E|-----------------|

 

GUITAR 1:

 

e|---------------------------------------------------------------------------------------------------|

B|---------------------------------------------------------------------------------------------------|

G|--7--x--x---x--x--x--x---x--x--x--x---7--7--x--7---6--x--x---x--x--x--x---x--x--x--x---6--6--x--6--|

D|--7--x--x---x--x--x--x---x--x--x--x---7--7--x--7---6--x--x---x--x--x--x---x--x--x--x---6--6--x--6--|

A|--5--x--x---x--x--x--x---x--x--x--x---5--5--x--5---4--x--x---x--x--x--x---x--x--x--x---4--4--x--4--|

E|---------------------------------------------------------------------------------------------------|

 

GUITAR 2:

 

e|--------------------------------------------------------|

B|--------------------------------------------------------|

G|--------------------------------------------------------|

D|-----7------7--6------------7--6-----7--6------7--9--9--|

A|--7------7--------7------7--------7---------7-----------|

E|--------------------------------------------------------|

 

GUITAR 3:

 

e|------------------------------------------------|

B|--12-(PH)--------------12-(PH)---------12-(PH)--|

G|----------14-(PH)--------------14-(PH)----------|

D|------------------------------------------------|

A|------------------------------------------------|

E|------------------------------------------------|

 

GUITAR 1:

 

e|----------------------------------------------|

B|----------------------------------------------|

G|--4--x--x---x--x--x--4---------9-----7--------|

D|--4--x--x---x--x--x--4------7-----9--------7--|

A|--2--x--x---x--x--x--2---9--------------9-----|

E|----------------------------------------------|

 

GUITAR 3:

 

e|---------------12------10----------|

B|--12-------10------12----------10--|

G|-------11------------------11------|

D|-----------------------------------|

A|-----------------------------------|

E|-----------------------------------|

 

 

Chorus/Estribillo: x2

 

GUITAR 1:

 

e|-----------------------------------------------------------------|

B|-----------------------------------------------------------------|

G|--------------------------------------------------------4--4--4--|

D|--5--5--7--7--7---5--5--7--7--7---4--4--5--5--5---7--7--4--4--4--|

A|--5--5--7--7--7---5--5--7--7--7---4--4--5--5--5---7--7--2--2--2--|

E|--3--3--5--5--5---3--3--5--5--5---2--2--3--3--3---5--5-----------|

 

GUITAR 2:

 

e|---------------------------------------------|

B|------------------------7--8--8-----7--8--7--|

G|--7---9----7--7--9---------------9-----------|

D|---------------------------------------------|

A|---------------------------------------------|

E|---------------------------------------------|

 

GUITAR 1:

 

e|------------------------------------------------------------------------------|

B|----------------------------------------------------------10--10--10--10--10--|

G|--------------------------------5--5--5-------------------9---9---9---9---9---|

D|--5--5--5---4--4--4---2--2--2---5--5--5---7--7--7--7--7---7---7---7---7---7---|

A|--5--5--5---4--4--4---2--2--2---3--3--3---7--7--7--7--7-----------------------|

E|--3--3--3---2--2--2---0--0--0-------------5--5--5--5--5-----------------------|

 

GUITAR 2:

 

e|---------------------------------------------|

B|--------------------8--8--7------------------|

G|--9--9-p-7--7--7-------------9--7--9--7-h-9--|

D|---------------------------------------------|

A|---------------------------------------------|

E|---------------------------------------------|

 

GUITAR 3:

 

e|--------------|

B|--------------|

G|--14-b--14-b--|

D|--------------|

A|--------------|

E|--------------|

 

GUITAR 1:

 

e|-----------------------------------------------------------------|

B|-----------------------------------------------------------------|

G|----------------------------------7--7------------------4--4--4--|

D|--5--5--7--7--7---5--5--7--7--7---7--7--5--5--5---7--7--4--4--4--|

A|--5--5--7--7--7---5--5--7--7--7---5--5--5--5--5---7--7--2--2--2--|

E|--3--3--5--5--5---3--3--5--5--5---------3--3--3---5--5-----------|

 

GUITAR 2:

 

e|---------------------------------------------|

B|------------------------7--8--8-----7--8--7--|

G|--7---9----7--7--9---------------9-----------|

D|---------------------------------------------|

A|---------------------------------------------|

E|---------------------------------------------|

 

GUITAR 1:

 

e|---------------------------------|

B|---------------------------------|

G|---------------------------------|

D|--5--5--5--5--5--5---8--8--8--8--|

A|--5--5--5--5--5--5---8--8--8--8--|

E|--3--3--3--3--3--3---6--6--6--6--|

 

GUITAR 2:

 

e|---------------------------------------------|

B|---------------------------------------------|

G|--9--9-p-7--7--7-------7--9--10--10--10--10--|

D|--------------------9------------------------|

A|---------------------------------------------|

E|---------------------------------------------|

 

GUITAR 3:

 

e|-----------------------------------|

B|-----------------------------------|

G|--10-(PH)-10-(PH)-10-(PH)-10-(PH)--|

D|-----------------------------------|

A|-----------------------------------|

E|-----------------------------------|

 

 

Outro:

 

GUITAR 1:

 

e|--------------------------|----------------------|

B|--------------------------|----------------------|

G|--5--------------------5--|--7------(7)-x--x--7--|

D|--5------7------8------5--|--7------(7)-x--x--7--|

A|--3------7------8------3--|--5------(5)-x--x--5--|

E|---------5------6---------|----------------------|

 

GUITAR 2:

 

e|--------|-----------------------------------------------------------------|

B|--8-----|--15-t-10-p-8--15-t-15-t-10-p-8--15-t-15-t-10-p-8----------------|

G|--10-b--|----------------------------------------------------(7)-x--x--7--|

D|--------|----------------------------------------------------(7)-x--x--7--|

A|--------|----------------------------------------------------(5)-x--x--5--|

E|--------|-----------------------------------------------------------------|

©2015 by Fefe - Tron544

Sigueme en:

  • YouTube - White Circle
  • Facebook - White Circle
  • Instagram - White Circle
  • Twitter - White Circle
This site was designed with the
.com
website builder. Create your website today.
Start Now