CENTIMETER

KANOJO, OKARISHIMASU

CHORDS ~ By Fefe (Tron544)

 

Chords used/Acordes utlizados:

Abdim: 4.5.6.4.x.x
A: x.0.2.2.2.0  -  Am7: x.0.2.0.1.0
Bbm7: x.1.3.1.2.1
Bm: x.2.4.4.3.2  -  Bm7: x.2.4.2.3.2  -  Bm7(var.): x.2.x.2.3.x
C9: x.3.2.3.3.x  -  Cadd9: x.3.2.0.3.3
D: x.x.0.2.3.2
Em: 0.2.2.0.0.0  -  Em7: 0.2.2.0.3.0
F#: 2.4.4.3.2.2  -  F#m7: 2.x.2.2.2.x
G: 3.2.0.0.3.3  -  Gm: 3.5.5.3.3.3
%: Same as the previous measure/Lo mismo que el compas anterior

 

| G D | Em7 | C9 | % |

 


   G           F#
   Unmei nante ienai
        Bm7          Bbm7 Am7  D
   Ato nansenchi chikazukeba iindarou
G         A      F#m7  Bm7(var.)
   Kimi ga (Kimi ga) iito
      Em               Gm
   Ienai mama mitsumeteru ushiro sugata...

 


| D Cadd9 | G Bb | D Cadd9 | G Bb |

 


Em7    A      D
   Yoyuu no nai hibi desu
Em7      A       D
   DEETO nante jishin ga naina

e|-----------------------------------------------------------|
B|-----------------------------------------------------------|
G|------7--------------7-7---------7--------------7-7--6--6--|
D|----5------7---7---7-----------5------7---7---7------7--7--|
A|--7--------------5-----------7--------------5--------------|
E|--------5----5---------------------5----5------------------|

Em7     A       D
   Kimi ga mabushii hodo
Em         A        D
   Boku wa nasake nakunatteku

e|--------------------------------------------------------|
B|--------------------------------------------------------|
G|------7--------------7-7---------7----------------------|
D|----5------7---7---7-----------5------7---7-------------|
A|--7--------------5-----------7--------------9-7-6-5-----|
E|--------5----5---------------------5----5---------------|

 


   Bm         Abdim
   Aenai jikan PURASU kimi ga waratta shunkan
   G               D*
   Waru ni no kono tokimeki to

e|-----------------|
B|-----------------|
G|--7-7-9-10-11----|
D|-----------------|
A|--5-5-7-8--9-----|
E|-----------------|

   Bm             Abdim
   Bukiyou na boku kakete tsuyogari na kimi wa
   G          D
   Angai PURASU kamotte
     Bb             Cadd9
   Kizuite shimattara saigo

 


          G           F#
   Matane unmei nante ienai
        Bm7          Bbm7 Am7  D
   Ato nansenchi chikazukeba iindarou
G         A      F#m7      Bm7(var.)
   Boku wa (Boku wa) kimi ni
           Em              Gm
   Nani wo shite agereru kana
          G            F#
   Ano hi daijoubu tte egao
        Bm7          Bbm7 Am7   D
   Ato nansenchi saki wo arui tendarou
G         A      F#m7  Bm7(var.)
   Kimi ga (Kimi ga) iito
        Em               Gm
   Ieba oi tsukeru nokana todoku nokana...

 


| D Cadd9 | G Bb ||

Centimeter - Tron544
00:00 / 00:00
DONATE%20BUTTON%20(EN)_edited.png

TABS ~ By Fefe (Tron544)

 

Intro:

GUITAR (Vocals):

e|---------------------------------------------------------------------|
B|--10--7-------11--12--14----------------------7-7h8--7-10-7----------|
G|---------9--7-------------11-9-9--9h11\7--7-9---------------9-9-9p7--|
D|---------------------------------------------------------------------|
A|---------------------------------------------------------------------|
E|---------------------------------------------------------------------|

GUITAR (Lead):

e|--10--------9--------10-------10---------|
B|-----------------------------------------|
G|-----------------------------------------|
D|-----------------------------------------|
A|-----------------------------------------|
E|-----------------------------------------|

GUITAR (Vocals):

e|---------------------------------------------------------------------------|---------------|
B|-------------------10/12-10--10-8-7-8-7------------------------------------|---------------|
G|-----9/11-9-----------------------------9-7-7---9/11-9--7-9/11-9--7-7-7h9--|--/11\9-7------|
D|---7-------------7----------------------------7----------------------------|---------------|
A|---------------------------------------------------------------------------|---------------|
E|---------------------------------------------------------------------------|---------------|

GUITAR (Lead):

e|--10----10----10----10----9----9----10----10----10----10----10----10----10--------|
B|-----10----10----10----10---10---10----10----10----10----10----10----10-10--------|
G|----------------------------------------------------------------------------------|
D|----------------------------------------------------------------------------------|
A|----------------------------------------------------------------------------------|
E|----------------------------------------------------------------------------------|

GUITAR (Lead):

e|--12/14--12----------------------13--13--12/14--12----------------------17-17---|
B|------------15--15--15--13-15-13-------------------15--15--15--13-15-13---------|
G|--------------------------------------------------------------------------------|
D|--------------------------------------------------------------------------------|
A|--------------------------------------------------------------------------------|
E|--------------------------------------------------------------------------------|

 


Verse/Estrofa:

GUITAR (Vocals):

e|------------------------------------------------------------------|
B|------------------------------------10/12-10-7-----------7/8--7---|
G|----7---7/9--9-7-9/11-9-7-7------7-------------9-7-7---7----------|
D|------7----------------------------------------------7------------|
A|------------------------------------------------------------------|
E|------------------------------------------------------------------|

GUITAR (Lead):

e|--10-9-10-12-10-9-------------------9h10p9--10-9-10-12-10-9-----------------------|
B|------------------12-10---------10--------------------------12-10----------10-----|
G|------------------------11-9-11-----------------------------------11-11-11--------|
D|----------------------------------------------------------------------------------|
A|----------------------------------------------------------------------------------|
E|----------------------------------------------------------------------------------|

GUITAR (Vocals):

e|-----------------------------------------------------------------|
B|-------------------------------------10/12-10-7------------------|
G|----7---7/9--9-7-9/11-9-7-7------7-7------------9-7-7--7h9-7-----|
D|------7----------------------------------------------------------|
A|-----------------------------------------------------------------|
E|-----------------------------------------------------------------|

GUITAR (Lead):

e|--10-9-10-12-10-9-------------------9h10p9--10-9-10-12-10-9--------------------|
B|------------------12-10---------10--------------------------12-10--------------|
G|------------------------11-9-11-----------------------------------11-9-8-7-----|
D|-------------------------------------------------------------------------------|
A|-------------------------------------------------------------------------------|
E|-------------------------------------------------------------------------------|

 


Pre-Chorus/Pre-Estribillo:

GUITAR (Vocals):

e|-----------------------------------------------------------------------------|
B|-------------7-------------------------7------10--10/12-10-8-7-7-7-8-9-10----|
G|--7-----7-/9---9/11--7-7-7-7-7-7-7-7-7---9-7---------------------------------|
D|-----7-----------------------------------------------------------------------|
A|-----------------------------------------------------------------------------|
E|-----------------------------------------------------------------------------|

GUITAR (Lead): Delay in 1/16th - Delay en semicorcheas

e|-----9-12-10---------------9-12-10-10-------------9-12-10---------------------|
B|--10---------10----12----9------------10----12------------10----12------------|
G|----------------11----11-----------------11----11------------11----11---------|
D|------------------------------------------------------------------------------|
A|------------------------------------------------------------------------------|
E|------------------------------------------------------------------------------|

GUITAR (Vocals):

e|-------------------------------------------------------------------------------|
B|-------------7-------------------------7------10--10/12-10-8-7-7-7-8-9-10------|
G|--7-----7-/9---9/11--7-7-7-7-7-7-7-7-7---9-7--------------------------------7--|
D|-----7-------------------------------------------------------------------------|
A|-------------------------------------------------------------------------------|
E|-------------------------------------------------------------------------------|

GUITAR (Lead): Delay in 1/16th - Delay en semicorcheas

e|-----9----------------9---------9----10-10----9-9h10----------------10----------9-10--------|
B|--10------10h12-10------10h12-9---10-----------------10-10h12----10----10h12----------------|
G|-------11----------11----------------------11-----------------11-------------11-------------|
D|--------------------------------------------------------------------------------------------|
A|--------------------------------------------------------------------------------------------|
E|--------------------------------------------------------------------------------------------|

GUITAR (Vocals):

e|------------------------------------------------|
B|------------------8/10-8-----8/10-8-------------|
G|--7/10--10--10-\7---------10--------------------|
D|------------------------------------------------|
A|------------------------------------------------|
E|------------------------------------------------|

GUITAR (Lead):

e|-----------------------------------------------|
B|--6-6-6-6-6-6-6-6-5-5-5-5-5-10-10-10-8-8-8-----|
G|--7-7-7-7-7-7-7-7-5-5-5-5-5-10-10-10-9-9-9-----|
D|-----------------------------------------------|
A|-----------------------------------------------|
E|-----------------------------------------------|

 


Chorus/Estribillo:

GUITAR (Vocals):

e|---------|---------------------------------------------------------------------|
B|---------|--10--7-------11--12--14----------------------7-7h8--7-10-7----------|
G|--7-9-7--|---------9--7-------------11-9-9--9h11\7--7-9---------------9-9-9p7--|
D|---------|---------------------------------------------------------------------|
A|---------|---------------------------------------------------------------------|
E|---------|---------------------------------------------------------------------|

GUITAR (Lead):

e|--------------------------------------------------|
B|--7--------7-----------------------5---5----------|
G|--7--------6---------7-p6---7-p6---5---5--6b--6b--|
D|--------------------------7------7----------------|
A|--------------------------------------------------|
E|--------------------------------------------------|

GUITAR (Vocals):

e|---------------------------------------------------------------------|
B|-------------------10/12-10--10-8-7-8-7------------------------------|
G|-----9/11-9-----------------------------9-7-7---9/11-9--------7-9-7--|
D|---7-------------7----------------------------7----------------------|
A|---------------------------------------------------------------------|
E|---------------------------------------------------------------------|

GUITAR (Lead):

e|--------------------------5/7-5------------------------------------|
B|------7--7/8-7--------------------7b--7b--7b--7b------------5-7-8--|
G|-------------------7-p6---------------------------------5-7--------|
D|--7-7------------7------7-------------------------5-7-8------------|
A|-------------------------------------------------------------------|
E|-------------------------------------------------------------------|

GUITAR (Vocals):

e|---------------------------------------------------------------------|
B|--10--7-------11--12--14----------------------7-7h8--7-10-7----------|
G|---------9--7-------------11-9-9--9h11\7--7-9---------------9-9-9p7--|
D|---------------------------------------------------------------------|
A|---------------------------------------------------------------------|
E|---------------------------------------------------------------------|

GUITAR (Lead):

e|--------------------------------------------------|
B|--7--------7-----------------------5---5----------|
G|--7--------6---------7-p6---7-p6---5---5--6b--6b--|
D|--------------------------7------7----------------|
A|--------------------------------------------------|
E|--------------------------------------------------|

GUITAR (Vocals):

e|---------------------------------------------------------------------------|---------------|
B|-------------------10/12-10--10-8-7-8-7------------------------------------|---------------|
G|-----9/11-9-----------------------------9-7-7---9/11-9--7-9/11-9--7-7-7h9--|--/11\9-7------|
D|---7-------------7----------------------------7----------------------------|---------------|
A|---------------------------------------------------------------------------|---------------|
E|---------------------------------------------------------------------------|---------------|

GUITAR (Lead):

e|--------------------------5/7-5------------------------------------|
B|------7--7/8-7--------------------7b--7b--7b--7b------------5-7-8--|
G|-------------------7-p6---------------------------------5-7--------|
D|--7-7------------7------7-------------------------5-7-8------------|
A|-------------------------------------------------------------------|
E|-------------------------------------------------------------------|

 


Outro:

GUITAR (Lead):

 

e|--12/14--12----------------------17-17-17----------|
B|------------15--15--15--13-15-13-------------------|
G|---------------------------------------------------|
D|---------------------------------------------------|
A|---------------------------------------------------|
E|---------------------------------------------------|

©2015 by Fefe - Tron544

Sigueme en:

  • YouTube - White Circle
  • Facebook - White Circle
  • Instagram - White Circle
  • Twitter - White Circle
This site was designed with the
.com
website builder. Create your website today.
Start Now