~ CATCH YOU, CATCH ME ~

TABLATURAS ~ By Fefe - Tron544

 

Intro:

 

e|-----------------------------------------------------------------|

B|--12--------------------13-------------------------13---15---17--|

G|-------12------15---15------14-----------12---14-----------------|

D|-----------14--------------------15--12--------------------------|

A|-----------------------------------------------------------------|

E|-----------------------------------------------------------------|

 

e|------------------------------------------------------------|

B|--12--12------12--13--12-----------13--13-h-15--13----------|

G|----------12--------------15---15-------------------15--14--|

D|------------------------------------------------------------|

A|------------------------------------------------------------|

E|------------------------------------------------------------|

 

e|-------------------------------------------|

B|-----------------------------------13--15--|

G|--14--14------14------14--12---14----------|

D|----------15------15-----------------------|

A|-------------------------------------------|

E|-------------------------------------------|

 

 

Verse/Estrofa:

 

e|----------------------------------------------------------------------------|

B|----------------------------------------------------------------------------|

G|----------------------------------------------------------------------------|

D|------12--14------------12--14------------12--14------------12--13--12------|

A|--15-----------15---15-----------15---15-----------15---15--------------15--|

E|----------------------------------------------------------------------------|

 

e|-------------------------------------------------------------------------------|

B|-------------------------------------------------------------------------------|

G|-------------------------------------------------------------------------------|

D|------12--14------------12--14------------12--14-------------------12------14--|

A|--15-----------15---15-----------15---15-----------15--15--15--15------15------|

E|-------------------------------------------------------------------------------|

 

 

Pre-Chorus/Pre-Estribillo:

 

e|---------------------------------------------------------------|

B|--13--------13--------13---------------------------------------|

G|------14--------14--------12---12--------------13--------------|

D|-----------------------------------14--12--14------14--12--14--|

A|---------------------------------------------------------------|

E|---------------------------------------------------------------|

 

e|--------------------------------------------------------|

B|--------------------------------------------------------|

G|---------------------------------------14-----------12--|

D|--12----------12----------12---------------14--14-------|

A|------15--15------15--15------15--15--------------------|

E|--------------------------------------------------------|

 

 

Chorus/Estribillo:

 

e|----------|-------------------------------------------------------------------------------------------------|

B|----------|--12--12--12--12--12--12--12--12--13-/-15--13---12-----------------------------------------------|

G|--12--14--|----------------------------------------------------15--14--13--12--12--12--12-----------12--14--|

D|----------|--------------------------------------------------------------------------------15--12-----------|

A|----------|-------------------------------------------------------------------------------------------------|

E|----------|-------------------------------------------------------------------------------------------------|

 

e|------------------------------------------------------------------------------------------------|

B|--12--12--12--12--12--12--12--12--13-/-15--13---12--12--12--12----------------------------------|

G|----------------------------------------------------------------14--13--13--13--13--------------|

D|------------------------------------------------------------------------------------14--14--14--|

A|------------------------------------------------------------------------------------------------|

E|------------------------------------------------------------------------------------------------|

 

e|----------------------------------------------------------|

B|------------------------------13------13--13--13--13--13--|

G|--------------------------12------------------------------|

D|--12--12----------14--14----------------------------------|

A|----------15--15------------------------------------------|

E|----------------------------------------------------------|

 

 

Outro:

 

e|----------------------------------------------------------------------------------------------------------|

B|--12--12------12--13--12-----------13--13-h-15--13--------------------------------------------13--15--17--|

G|----------12--------------15---15-------------------15--14---14--14------14------14--12---14--------------|

D|---------------------------------------------------------------------15------15---------------------------|

A|----------------------------------------------------------------------------------------------------------|

E|----------------------------------------------------------------------------------------------------------|

 

Catch You, Catch Me - Tron544
00:00 / 00:00

©2019 by Fefe - Tron544

Sigueme en:

  • YouTube - White Circle
  • Facebook - White Circle
  • Instagram - White Circle
  • Twitter - White Circle
This site was designed with the
.com
website builder. Create your website today.
Start Now