~ CAN DO ~

TABLATURAS ~ By Fefe - Tron544

 

Intro:

 

GUITAR 3:

 

e|-------------------------------------------------------------|

B|-------------------------------------------------------------|

G|-------9-----11-----13-----11-----9-----11-----13-----11-----|

D|--/-9-----9------9------9------9-----9------9------9------9--|

A|-------------------------------------------------------------|

E|-------------------------------------------------------------|

 

e|-----------------------------------------------------|

B|----------------------12-----10----------------------|

G|--9-----11-----13-------------------13-----11-----9--|

D|-----9------9------9------9------9------9------9-----|

A|-----------------------------------------------------|

E|-----------------------------------------------------|

 

GUITAR 1:

 

e|----------------------------------|

B|----------------------------------|

G|--2------7------------------------|

D|--2------7------------------------|

A|--0------5------------------------|

E|----------------5--4--5--4--5--7--|

 

GUITAR 2:

 

e|--12--0--14--0--16--0--14--0--12--0--14--0--16--0--14--0--12--0--14--0--16--0--14------------------------|

B|-----------------------------------------------------------------------------------10--9--10--9--10--12--|

G|---------------------------------------------------------------------------------------------------------|

D|---------------------------------------------------------------------------------------------------------|

A|---------------------------------------------------------------------------------------------------------|

E|---------------------------------------------------------------------------------------------------------|

 

GUITAR 3:

 

e|--------------------------------------------------------------------------------------------------|

B|--------------------------------------------------------------------------------------------------|

G|--9-----11-----13-----11-----9-----11-----13-----11-----9-----11-----13-----11--------------------|

D|-----9------9------9------9-----9------9------9------9-----9------9------9------7--6--7--6--7--9--|

A|--------------------------------------------------------------------------------------------------|

E|--------------------------------------------------------------------------------------------------|

 

GUITAR 1:

 

e|-----------------------------------------------------------------------------|

B|-----------------------------------------------------------------------------|

G|-----------------------------------------------------------------------------|

D|--2--2--2--2--2--2---2--2--2--2--2--2---2--2--2--2--2--2---2--2--2--2--2--2--|

A|--2--2--2--2--2--2---2--2--2--2--2--2---2--2--2--2--2--2---2--2--2--2--2--2--|

E|--0--0--0--0--0--0---0--0--0--0--0--0---0--0--0--0--0--0---0--0--0--0--0--0--|

 

GUITAR 2:

 

e|--12--0--14--0--16--0--14--0--12--0--14--0--16--0--14--0--12--0--14--0--16--0--19--0--17--0--16--0--14--0--12--|

B|---------------------------------------------------------------------------------------------------------------|

G|---------------------------------------------------------------------------------------------------------------|

D|---------------------------------------------------------------------------------------------------------------|

A|---------------------------------------------------------------------------------------------------------------|

E|---------------------------------------------------------------------------------------------------------------|

 

GUITAR 3:

 

e|-----------------------------------------------------------------------------------------------------------|

B|----------------------------------------------------------------------------12-----10----------------------|

G|--9-----11-----13-----11-----9-----11-----13-----11-----9-----11-----13-------------------13-----11-----9--|

D|-----9------9------9------9-----9------9------9------9-----9------9------9------9------9------9------9-----|

A|-----------------------------------------------------------------------------------------------------------|

E|-----------------------------------------------------------------------------------------------------------|

 

GUITAR 1:

 

e|-----------------------------------------------------------------------------|

B|-----------------------------------------------------------------------------|

G|-----------------------------------------------------------------------------|

D|--2--2--2--2--2--2---2--2--2--2--2--2---2--2--2--2--2--2---------------------|

A|--2--2--2--2--2--2---2--2--2--2--2--2---2--2--2--2--2--2---------------------|

E|--0--0--0--0--0--0---0--0--0--0--0--0---0--0--0--0--0--0---5--4--5--4--5--7--|

 

GUITAR 2:

 

e|--12--0--14--0--16--0--14--0--12--0--14--0--16--0--14--0--12--0--14--0--16--0--14------------------------|

B|-----------------------------------------------------------------------------------10--9--10--9--10--12--|

G|---------------------------------------------------------------------------------------------------------|

D|---------------------------------------------------------------------------------------------------------|

A|---------------------------------------------------------------------------------------------------------|

E|---------------------------------------------------------------------------------------------------------|

 

GUITAR 3:

 

e|--------------------------------------------------------------------------------------------------|

B|--------------------------------------------------------------------------------------------------|

G|--9-----11-----13-----11-----9-----11-----13-----11-----9-----11-----13-----11--------------------|

D|-----9------9------9------9-----9------9------9------9-----9------9------9------7--6--7--6--7--9--|

A|--------------------------------------------------------------------------------------------------|

E|--------------------------------------------------------------------------------------------------|

 

GUITAR 1:

 

e|-----|

B|-----|

G|-----|

D|--9--|

A|--9--|

E|--7--|

 

GUITAR 2:

 

e|----------12------14------12------17--16-h-17-p-16------19--|

B|--12--12------12------12------12--------------------17------|

G|------------------------------------------------------------|

D|------------------------------------------------------------|

A|------------------------------------------------------------|

E|------------------------------------------------------------|

 

GUITAR 3:

 

e|---------------------------------------------------|

B|---------------------------10--9-h-10-p-9------12--|

G|--------9-----11-----9---------------------9-------|

D|--9--9-----9------9-----9--------------------------|

A|---------------------------------------------------|

E|---------------------------------------------------|

 

 

Verse/Estrofa:

 

GUITAR 1:

 

e|---------------------------------------------------------------------------------------------------|

B|---------------------------------------------------------------------------------------------------|

G|--9--x--x---x--x--x--x---x--x--x--x---x--x--x--x---------------------------------------------------|

D|--9--x--x---x--x--x--x---x--x--x--x---x--x--x--x---9--x--x---x--x--x--x---x--x--x--x---x--x--x--x--|

A|--7--x--x---x--x--x--x---x--x--x--x---x--x--x--x---9--x--x---x--x--x--x---x--x--x--x---x--x--x--x--|

E|---------------------------------------------------7--x--x---x--x--x--x---x--x--x--x---x--x--x--x--|

 

GUITAR 2:

 

e|------------------------------------------------|

B|------------------------------------------------|

G|---------------------------------------6--8-----|

D|--6--7--9----9--9--7--6--7--9----9--9--------9--|

A|------------------------------------------------|

E|------------------------------------------------|

 

GUITAR 1:

 

e|-------------------------------------------------------------------------------------------|

B|-------------------------------------------------------------------------------------------|

G|-------------------------------------------------------------------------------------7--7--|

D|--11--x--x---x--x--x--x---11--11--11--11---11--11--11--11---7--x--7--x--7--x--7--x---7--7--|

A|--11--x--x---x--x--x--x---11--11--11--11---11--11--11--11---7--x--7--x--7--x--7--x---5--5--|

E|--9---x--x---x--x--x--x---9---9---9---9----9---9---9---9----5--x--5--x--5--x--5--x---------|

 

GUITAR 2:

 

e|-----------------------------------------------|

B|-----------------------------------------------|

G|--9--8--6--------------------------------------|

D|-----------9--9--7--6--7--6--7--6--7--6--------|

A|-----------------------------------------9--7--|

E|-----------------------------------------------|

 

GUITAR 3:

 

e|---------------------------------|

B|---------------------------------|

G|---------------------------7--7--|

D|--7--x--7--x--7--x--7--x---7--7--|

A|--7--x--7--x--7--x--7--x---5--5--|

E|--5--x--5--x--5--x--5--x---------|

 

GUITAR 1:

 

e|---------------------------------------------------------------------------------------------------|

B|---------------------------------------------------------------------------------------------------|

G|--9--x--x---x--x--x--x---x--x--x--x---x--x--x--x---------------------------------------------------|

D|--9--x--x---x--x--x--x---x--x--x--x---x--x--x--x---9--x--x---x--x--x--x---x--x--x--x---x--x--x--x--|

A|--7--x--x---x--x--x--x---x--x--x--x---x--x--x--x---9--x--x---x--x--x--x---x--x--x--x---x--x--x--x--|

E|---------------------------------------------------7--x--x---x--x--x--x---x--x--x--x---x--x--x--x--|

 

GUITAR 2:

 

e|------------------------------------------|

B|------------------------------------------|

G|---------------------------------6--8-----|

D|--9----9--9--7--6--7--9----9--9--------9--|

A|------------------------------------------|

E|------------------------------------------|

 

GUITAR 3:

 

e|---------------------------------------------------------------------------------------------------|

B|---------------------------------------------------------------------------------------------------|

G|--9--x--x---x--x--x--x---x--x--x--x---x--x--x--x---------------------------------------------------|

D|--9--x--x---x--x--x--x---x--x--x--x---x--x--x--x---9--x--x---x--x--x--x---x--x--x--x---x--x--x--x--|

A|--7--x--x---x--x--x--x---x--x--x--x---x--x--x--x---9--x--x---x--x--x--x---x--x--x--x---x--x--x--x--|

E|---------------------------------------------------7--x--x---x--x--x--x---x--x--x--x---x--x--x--x--|

 

GUITAR 1:

 

e|-------------------------------------------------------------------------|

B|-------------------------------------------------------------------------|

G|-------------------------------------------------------------------------|

D|--11--x--x---x--x--x--x---x--x--x--x---x--x--x--x---7--x--x--x--x--x--7--|

A|--11--x--x---x--x--x--x---x--x--x--x---x--x--x--x---7--x--x--x--x--x--7--|

E|--9---x--x---x--x--x--x---x--x--x--x---x--x--x--x---5--x--x--x--x--x--5--|

 

GUITAR 2:

 

e|-----------------------------------------|

B|-----------------------------------------|

G|--9--8--6------------9---8---------------|

D|-----------9--9---9-------------9--9--9--|

A|-----------------------------------------|

E|-----------------------------------------|

 

GUITAR 3:

 

e|-------------------------------------------------------------------------|

B|-------------------------------------------------------------------------|

G|-------------------------------------------------------------------------|

D|--11--x--x---x--x--x--x---x--x--x--x---x--x--x--x---7--x--x--x--x--x--7--|

A|--11--x--x---x--x--x--x---x--x--x--x---x--x--x--x---7--x--x--x--x--x--7--|

E|--9---x--x---x--x--x--x---x--x--x--x---x--x--x--x---5--x--x--x--x--x--5--|

 

GUITAR 1:

 

e|------------------------------------------------------------------------|

B|------------------------------------------------------------------------|

G|------------------------------------------------------------------------|

D|--7--7--7--7--7--7---6--6--6--6--6--6---4--4--4--4--4--4---2--2--2---6--|

A|--7--7--7--7--7--7---7--7--7--7--7--7---4--4--4--4--4--4---2--2--2---7--|

E|--5--5--5--5--5--5---4--4--4--4--4--4---2--2--2--2--2--2---0--0--0---4--|

 

GUITAR 2:

 

e|-------------------------------------------------------------------|

B|-------------------------------------------------------------------|

G|--8--8--8--9--9--9--9--8--8--9----8--8--8--9--9--9--9--6-----------|

D|----------------------------------------------------------9--7--6--|

A|-------------------------------------------------------------------|

E|-------------------------------------------------------------------|

 

GUITAR 3:

 

e|--11--0--12--0--14--0--12--0--11--0--12--0--14--0--12--0--11--0--12--0--14--0--12--0--12--0--11--0----------|

B|----------------------------------------------------------------------------------------------------14--12--|

G|------------------------------------------------------------------------------------------------------------|

D|------------------------------------------------------------------------------------------------------------|

A|------------------------------------------------------------------------------------------------------------|

E|------------------------------------------------------------------------------------------------------------|

 

GUITAR 1:

 

e|--------------------------------------------------------------------|

B|--------------------------------------------------------------------|

G|-----------------------------------------------------------9--8--6--|

D|--7--7--7--7--7--7---6--6--6--6--6--6---4--4--4--4--4--4------------|

A|--7--7--7--7--7--7---7--7--7--7--7--7---4--4--4--4--4--4---7--6--4--|

E|--5--5--5--5--5--5---4--4--4--4--4--4---2--2--2--2--2--2------------|

 

GUITAR 2:

 

e|----------------------------------------------------------------|

B|-------------------------------------------------------9--7-----|

G|--8--8--8--9--9--9--9--8--8--9----8--8--8--9--9--9--9--------9--|

D|----------------------------------------------------------------|

A|----------------------------------------------------------------|

E|----------------------------------------------------------------|

 

GUITAR 3:

 

e|--11--0--12--0--14--0--12--0--11--0--12--0--14--0--12--0--11--0--12--0--14--0--12--0--16--14--12--|

B|--------------------------------------------------------------------------------------------------|

G|--------------------------------------------------------------------------------------------------|

D|--------------------------------------------------------------------------------------------------|

A|--------------------------------------------------------------------------------------------------|

E|--------------------------------------------------------------------------------------------------|

 

 

Pre-Chorus/Pre-Estribillo:

 

GUITAR 1:

 

e|-----------------------------------------------------------------|

B|-----------------------------------------------------------------|

G|-----------------------------------------------------6--x--x--6--|

D|--7--7--7--7--7--7---6--x--x--6---4--4--4--4--4--4---6--x--x--6--|

A|--7--7--7--7--7--7---7--x--x--7---4--4--4--4--4--4---4--x--x--4--|

E|--5--5--5--5--5--5---4--x--x--4---2--2--2--2--2--2---------------|

 

GUITAR 2:

 

e|-----------7----------------7-----|

B|----------------------------------|

G|--6--8--9-----9----6--8--9-----9--|

D|----------------------------------|

A|----------------------------------|

E|----------------------------------|

 

GUITAR 3:

 

e|-----------------------------------------------------------------|

B|-----------------------------------------------------------------|

G|-----------------------------------------------------6--x--x--6--|

D|--7--7--7--7--7--7---6--x--x--6---4--4--4--4--4--4---6--x--x--6--|

A|--7--7--7--7--7--7---7--x--x--7---4--4--4--4--4--4---4--x--x--4--|

E|--5--5--5--5--5--5---4--x--x--4---2--2--2--2--2--2---------------|

 

GUITAR 1:

 

e|-------------------------------------------------------------------------------------|

B|-------------------------------------------------------------------------------------|

G|--7--x--x--7---2--x--2--x--2---(4)-x--4--(4)-x--4--(4)-x--4--(4)-x--4---2--2--2---4--|

D|--7--x--x--7---2--x--2--x--2---(4)-x--4--(4)-x--4--(4)-x--4--(4)-x--4---2--2--2---4--|

A|--5--x--x--5---0--x--0--x--0---(2)-x--2--(2)-x--2--(2)-x--2--(2)-x--2---0--0--0---2--|

E|-------------------------------------------------------------------------------------|

 

GUITAR 2:

 

e|----------------------------------------------------------------------------------|

B|--7--7--7--7--7-----7-----7--7---7-----7--7-----7--7-----7--7-----7------------7--|

G|-----------------9-----9------------9--------9--------9--------9------9--8--9-----|

D|----------------------------------------------------------------------------------|

A|----------------------------------------------------------------------------------|

E|----------------------------------------------------------------------------------|

 

GUITAR 3:

 

e|-------------------------------------------------------------------------------------|

B|-------------------------------------------------------------------------------------|

G|--7--x--x--7---2--x--2--x--2---(4)-x--4--(4)-x--4--(4)-x--4--(4)-x--4---2--2--2---4--|

D|--7--x--x--7---2--x--2--x--2---(4)-x--4--(4)-x--4--(4)-x--4--(4)-x--4---2--2--2---4--|

A|--5--x--x--5---0--x--0--x--0---(2)-x--2--(2)-x--2--(2)-x--2--(2)-x--2---0--0--0---2--|

E|-------------------------------------------------------------------------------------|

 

 

Chorus/Estribillo:

 

GUITAR 1:

 

e|-----------------------------------------------------------------------------|

B|-----------------------------------------------------------------------------|

G|--9--9--9--9--9--9---9--9--9--9--9--9----------------------------------------|

D|--9--9--9--9--9--9---9--9--9--9--9--9---7--7--7--7--7--7---7--7--7--7--7--7--|

A|--7--7--7--7--7--7---7--7--7--7--7--7---7--7--7--7--7--7---7--7--7--7--7--7--|

E|----------------------------------------5--5--5--5--5--5---5--5--5--5--5--5--|

 

GUITAR 2:

 

e|----------------------------------------------------|

B|--7--9--7--9--7--9--7------7--9--7--9--10--9--7--9--|

G|-----------------------9----------------------------|

D|----------------------------------------------------|

A|----------------------------------------------------|

E|----------------------------------------------------|

 

GUITAR 3:

 

e|--19---------------19---------------19---------------19--------------|

B|------17--16--17-------17--16--17-------17--16--17-------17--16--17--|

G|---------------------------------------------------------------------|

D|---------------------------------------------------------------------|

A|---------------------------------------------------------------------|

E|---------------------------------------------------------------------|

 

GUITAR 1:

 

e|-----------------------------------------------------------------------------|

B|-----------------------------------------------------------------------------|

G|--6--6--6--6--6--6-----------------------------------------------------------|

D|--6--6--6--6--6--6---9--9--9--9--9--9---7--7--7--7--7--7---9--9--9--9--9--9--|

A|--4--4--4--4--4--4---9--9--9--9--9--9---7--7--7--7--7--7---9--9--9--9--9--9--|

E|---------------------7--7--7--7--7--7---5--5--5--5--5--5---7--7--7--7--7--7--|

 

GUITAR 2:

 

e|--------9--7---------9--7------------|

B|-------------------------------9--7--|

G|--9--9---------9--9---------9--------|

D|-------------------------------------|

A|-------------------------------------|

E|-------------------------------------|

 

GUITAR 3:

 

e|--19---------------19---------------19---------------19--------------|

B|------17--16--17-------17--16--17-------17--16--17-------17--16--17--|

G|---------------------------------------------------------------------|

D|---------------------------------------------------------------------|

A|---------------------------------------------------------------------|

E|---------------------------------------------------------------------|

 

GUITAR 1:

 

e|-------------------------------------------------------------|

B|-------------------------------------------------------------|

G|-------------------------------------------------------------|

D|--6--x--x--6---7--x--x--x--7---9--x--x--9---10--x--x--x--10--|

A|--6--x--x--6---7--x--x--x--7---9--x--x--9---11--x--x--x--11--|

E|--4--x--x--4---5--x--x--x--5---7--x--x--7---8---x--x--x--8---|

 

GUITAR 2:

 

e|-------------------------------------------7--------|

B|--7--9--7--9--7--9--7------7--9--7--9--10-----9--7--|

G|-----------------------9----------------------------|

D|----------------------------------------------------|

A|----------------------------------------------------|

E|----------------------------------------------------|

 

GUITAR 3:

 

e|--19---------------19---------------19---------------19--17--16--14--|

B|------17--16--17-------17--16--17-------17--16--17-------------------|

G|---------------------------------------------------------------------|

D|---------------------------------------------------------------------|

A|---------------------------------------------------------------------|

E|---------------------------------------------------------------------|

 

GUITAR 1:

 

e|-----0------0-----------------------------|

B|-----0------0-----------------------------|

G|--6------4-----------------------------7--|

D|--6------4------7--x--x---x--x--x--x---7--|

A|--4------2------7--x--x---x--x--x--x---5--|

E|----------------5--x--x---x--x--x--x------|

 

GUITAR 2:

 

e|------------------------------------------------|

B|-------------------7--9--10-------7-h-9-p-7-----|

G|--9----9--9--9--9--------------9-------------9--|

D|------------------------------------------------|

A|------------------------------------------------|

E|------------------------------------------------|

 

GUITAR 3:

 

e|------16-----------16-----------16------|

B|--17------17---16------16---14------14--|

G|----------------------------------------|

D|----------------------------------------|

A|----------------------------------------|

E|----------------------------------------|

 

 

Outro:

 

GUITAR 1:

 

e|-----------------------------------|

B|-----------------------------------|

G|--9--9-------------7--7------------|

D|--9--9---9--9--9---7--7---7--7--7--|

A|--7--7---9--9--9---5--5---7--7--7--|

E|---------7--7--7----------5--5--5--|

 

GUITAR 2:

 

e|------------------------|

B|-----7-h-9-p-7--7-h-10--|

G|--9---------------------|

D|------------------------|

A|------------------------|

E|------------------------|

 

GUITAR 3:

 

e|--12--0--14--0--16--0--14--0--12--0--14--0--16--0--14--0--|

B|----------------------------------------------------------|

G|----------------------------------------------------------|

D|----------------------------------------------------------|

A|----------------------------------------------------------|

E|----------------------------------------------------------|

 

GUITAR 4:

 

e|--------------------------------------------------------|

B|--------------------------------------------------------|

G|--9-----11-----13-----11-----9-----11-----13-----11-----|

D|-----9------9------9------9-----9------9------9------9--|

A|--------------------------------------------------------|

E|--------------------------------------------------------|

 

GUITAR 1:

 

e|---------------------------------------|

B|---------------------------------------|

G|--9--9-------------7--7-------------9--|

D|--9--9---9--9--9---7--7---7--7--7---9--|

A|--7--7---9--9--9---5--5---7--7--7---7--|

E|---------7--7--7----------5--5--5------|

 

GUITAR 2:

 

e|-------------------|

B|-----7-h-9-p-7-----|

G|--9-------------9--|

D|-------------------|

A|-------------------|

E|-------------------|

 

GUITAR 3:

 

e|--12--0--14--0--16--0--19--0--17--0--16--0--14--0--12--0--12--|

B|--------------------------------------------------------------|

G|--------------------------------------------------------------|

D|--------------------------------------------------------------|

A|--------------------------------------------------------------|

E|--------------------------------------------------------------|

 

GUITAR 4:

 

e|------------------------------------------------------------|

B|----------------------12-----10-----------------------------|

G|--9-----11-----13-------------------13-----11-----9------9--|

D|-----9------9------9------9------9------9------9-----9---9--|

A|---------------------------------------------------------7--|

E|------------------------------------------------------------|

 

 

 

Can Do - Tron544
00:00 / 00:00

©2019 by Fefe - Tron544

Sigueme en:

  • YouTube - White Circle
  • Facebook - White Circle
  • Instagram - White Circle
  • Twitter - White Circle
This site was designed with the
.com
website builder. Create your website today.
Start Now