~ CAGAYAKE! GIRLS ~

TABLATURAS ~ By Fefe - Tron544

 

Intro:

 

e|-----------------------------------------|

B|-----------------------------------------|

G|-----------------------------------------|

D|--------------------------------7--7--7--|

A|--5--6--7---5--6--7---5--6--7---7--7--7--|

E|--5--6--7---5--6--7---5--6--7------------|

 

e|-----------------------------------------|

B|-----------------------------------------|

G|-----------------------------------------|

D|-----------------------------------------|

A|--5--6--7---5--6--7---5--6--7---9--9--9--|

E|--5--6--7---5--6--7---5--6--7---7--7--7--|

 


First Chorus/Primer Estribillo:

 

GUITAR 1:

 

e|--5--5---7--7---7--7---7--7--|
B|--5--5---7--7---7--7---7--7--|
G|--6--6---8--8---9--9---8--8--|
D|--7--7---9--9---9--9---9--9--|
A|--7--7---9--9---7--7---9--9--|
E|--5--5---7--7----------7--7--|

 

GUITAR 2:

 

e|-------------|----------------------------------------------------|
B|------9--10--|--12--12--10--10--9--9--10--12---12--10--10--9--10--|
G|--11---------|----------------------------------------------------|
D|-------------|----------------------------------------------------|
A|-------------|----------------------------------------------------|
E|-------------|----------------------------------------------------|

 

GUITAR 1:

 

e|--5--5---7--7--7--7---8---8---8----10--10--|
B|--5--5---7--7--7--7---8---8---8----10--10--|
G|--6--6---8--8--8--8---9---9---9----11--11--|
D|--7--7---9--9--9--9---10--10--10---12--12--|
A|--7--7---9--9--9--9---10--10--10---12--12--|
E|--5--5---7--7--7--7---8---8---8----10--10--|

 

GUITAR 2:

 

e|-------------------------------------------|
B|--------------------8---7--10--7---10--10--|
G|--6--9--6--9--6--6-------------------------|
D|-------------------------------------------|
A|-------------------------------------------|
E|-------------------------------------------|

 

GUITAR 1:

 

e|--5--5---7--7---7--7---7--7--|
B|--5--5---7--7---7--7---7--7--|
G|--6--6---8--8---9--9---8--8--|
D|--7--7---9--9---9--9---9--9--|
A|--7--7---9--9---7--7---9--9--|
E|--5--5---7--7----------7--7--|

 

GUITAR 2:

 

e|-------------------------------------------------------|
B|--12--12--10--10--9--9--10--12---12--10--10--9--9--10--|
G|-------------------------------------------------------|
D|-------------------------------------------------------|
A|-------------------------------------------------------|
E|-------------------------------------------------------|

 

GUITAR 1:

 

e|--5--5---7--7--7--7---8---8---8----10--10--|
B|--5--5---7--7--7--7---8---8---8----10--10--|
G|--6--6---8--8--8--8---9---9---9----11--11--|
D|--7--7---9--9--9--9---10--10--10---12--12--|
A|--7--7---9--9--9--9---10--10--10---12--12--|
E|--5--5---7--7--7--7---8---8---8----10--10--|

GUITAR 2:

 

e|-----------------------------------|
B|--------------------8---7----------|
G|--6--9--6--9--6--6----------6-/-9--|
D|-----------------------------------|
A|-----------------------------------|
E|-----------------------------------|

 

GUITAR 1:

 

e|--7--7--7--7---7--7--7--7---7--7--7--7---7--7--7--7--|
B|--7--7--7--7---7--7--7--7---7--7--7--7---7--7--7--7--|
G|--9--9--7--7---9--9--7--7---9--9--7--7---9--9--7--7--|
D|--9--9--7--7---9--9--7--7---9--9--7--7---9--9--7--7--|
A|--7--7--7--7---7--7--7--7---7--7--7--7---7--7--7--7--|
E|-----------------------------------------------------|

 


Verse/Estrofa:

 

GUITAR 1:

 

e|-----------------------------------------------------------------------------------------------------|
B|-----------------------------------------------------------------------------------------------------|
G|--9--x--x--x--x--x--x--x---6--x--x--x--x--x--x--x---8--x--x--x--x--x--x--x---6--x--x--x--x--x--x--x--|
D|--9--x--x--x--x--x--x--x---7--x--x--x--x--x--x--x---9--x--x--x--x--x--x--x---7--x--x--x--x--x--x--x--|
A|-----------------------------------------------------------------------------------------------------|
E|-----------------------------------------------------------------------------------------------------|

 

GUITAR 2:

 

e|------------------------------------------------------------|
B|-----9-----------------------------9------------------------|
G|--9-----11--9--9--9--8--11--9---9-----11--9--9--9--8--9-----|
D|---------------------------------------------------------9--|
A|------------------------------------------------------------|
E|------------------------------------------------------------|

 

GUITAR 1:

 

e|-----------------------------------------------------------------------------------------------------|
B|-----------------------------------------------------------------------------------------------------|
G|--9--x--x--x--x--x--x--x---6--x--x--x--x--x--x--x---8--x--x--x--x--x--x--x---6--x--x--x--x--x--x--x--|
D|--9--x--x--x--x--x--x--x---7--x--x--x--x--x--x--x---9--x--x--x--x--x--x--x---7--x--x--x--x--x--x--x--|
A|-----------------------------------------------------------------------------------------------------|
E|-----------------------------------------------------------------------------------------------------|

 

GUITAR 2:

 

e|-------------------------------------------------------------|
B|-------------------------------------------------------------|
G|--9--9---9---9--9---9---9--9---9--9--9--9---9--9---9---9--9--|
D|-------------------------------------------------------------|
A|-------------------------------------------------------------|
E|-------------------------------------------------------------|

 

GUITAR 1:

 

e|-----------------------------------------------------------------------------------------------------|
B|-----------------------------------------------------------------------------------------------------|
G|--9--x--x--x--x--x--x--x---6--x--x--x--x--x--x--x---8--x--x--x--x--x--x--x---6--x--x--x--x--x--x--x--|
D|--9--x--x--x--x--x--x--x---7--x--x--x--x--x--x--x---9--x--x--x--x--x--x--x---7--x--x--x--x--x--x--x--|
A|-----------------------------------------------------------------------------------------------------|
E|-----------------------------------------------------------------------------------------------------|

 

GUITAR 2:

 

e|--------------------------------------------------------|
B|-----9---------------------------9----------------------|
G|--9-----11--9---9--8--11--9---9-----11--9---9--8--9-----|
D|-----------------------------------------------------9--|
A|--------------------------------------------------------|
E|--------------------------------------------------------|

 

GUITAR 1:

 

e|-----------------------------------------------------------------------------------------------------|
B|-----------------------------------------------------------------------------------------------------|
G|--9--x--x--x--x--x--x--x---6--x--x--x--x--x--x--x---8--x--x--x--x--x--x--x---6--x--x--x--x--x--x--x--|
D|--9--x--x--x--x--x--x--x---7--x--x--x--x--x--x--x---9--x--x--x--x--x--x--x---7--x--x--x--x--x--x--x--|
A|-----------------------------------------------------------------------------------------------------|
E|-----------------------------------------------------------------------------------------------------|

 

GUITAR 2:

 

e|------------------------------------------------------------|
B|------------------------------------------------------------|
G|--9---9--9---9--9---9--9--9--9---9---9--9---9--9--9---9--9--|
D|------------------------------------------------------------|
A|------------------------------------------------------------|
E|------------------------------------------------------------|

 


Pre-Chorus/Pre-Estribillo:

 

GUITAR 1:

 

e|--------------------------5------------------------------------------------7-----------------------|
B|--------5--------5-----------5-----5--------5------------7--------7-----------7-----7--------7-----|
G|-----------6--------6-----------6-----6--------6------------8--------8-----------8-----8--------8--|
D|--------------7--------7-----------------7---------------------9--------9-----------------9--------|
A|-----7------------------------------------------------9--------------------------------------------|
E|--5------------------------------------------------7-----------------------------------------------|

 

GUITAR 2:

 

e|------------------------------------------------------|
B|-----------------9--------------------------12--------|
G|------9--11--11-----11--9--------9--11--11------9--9--|
D|--11-------------------------11-----------------------|
A|------------------------------------------------------|
E|------------------------------------------------------|

 

GUITAR 1:

 

e|--------------------------5------------------------------------------------7-----------------------|
B|--------5--------5-----------5-----5--------5------------7--------7-----------7-----7--------7-----|
G|-----------6--------6-----------6-----6--------6------------8--------8-----------8-----8--------8--|
D|--------------7--------7-----------------7---------------------9--------9-----------------9--------|
A|-----7------------------------------------------------9--------------------------------------------|
E|--5------------------------------------------------7-----------------------------------------------|

 

GUITAR 2:

 

e|-------------------------------------------------------------------------------|
B|-----------------9--------------------------------9--9--9--10--9--10--10-/-12--|
G|------9--11--11-----11--9--------9------9------9-------------------------------|
D|--11-------------------------11-----11-----11----------------------------------|
A|-------------------------------------------------------------------------------|
E|-------------------------------------------------------------------------------|

 


Second Chorus/ Segundo Estribillo:

 

GUITAR 1:

 

e|--5--5---7--7---7--7---7--7--|
B|--5--5---7--7---7--7---7--7--|
G|--6--6---8--8---9--9---8--8--|
D|--7--7---9--9---9--9---9--9--|
A|--7--7---9--9---7--7---9--9--|
E|--5--5---7--7----------7--7--|

 

GUITAR 2:

 

e|-------------|----------------------------------------------------|
B|------9--10--|--12--12--10--10--9--9--10--12---12--10--10--9--10--|
G|--11---------|----------------------------------------------------|
D|-------------|----------------------------------------------------|
A|-------------|----------------------------------------------------|
E|-------------|----------------------------------------------------|

 

GUITAR 1:

 

e|--5--5---7--7--7--7---8---8---8----10--10--|
B|--5--5---7--7--7--7---8---8---8----10--10--|
G|--6--6---8--8--8--8---9---9---9----11--11--|
D|--7--7---9--9--9--9---10--10--10---12--12--|
A|--7--7---9--9--9--9---10--10--10---12--12--|
E|--5--5---7--7--7--7---8---8---8----10--10--|

 

GUITAR 2:

 

e|-------------------------------------------|
B|--------------------8---7--10--7---10--10--|
G|--6--9--6--9--6--6-------------------------|
D|-------------------------------------------|
A|-------------------------------------------|
E|-------------------------------------------|

 

GUITAR 1:

 

e|--5--5---7--7---7--7---7--7--|
B|--5--5---7--7---7--7---7--7--|
G|--6--6---8--8---9--9---8--8--|
D|--7--7---9--9---9--9---9--9--|
A|--7--7---9--9---7--7---9--9--|
E|--5--5---7--7----------7--7--|

 

GUITAR 2:

 

e|-------------------------------------------------------|
B|--12--12--10--10--9--9--10--12---12--10--10--9--9--10--|
G|-------------------------------------------------------|
D|-------------------------------------------------------|
A|-------------------------------------------------------|
E|-------------------------------------------------------|

 

GUITAR 1:

 

e|--5--5---7--7--7--7---8---8---8----10--10--|
B|--5--5---7--7--7--7---8---8---8----10--10--|
G|--6--6---8--8--8--8---9---9---9----11--11--|
D|--7--7---9--9--9--9---10--10--10---12--12--|
A|--7--7---9--9--9--9---10--10--10---12--12--|
E|--5--5---7--7--7--7---8---8---8----10--10--|

 

GUITAR 2:

 

e|--------------------------------|
B|--------------------8---8-/-10--|
G|--6--9--6--9--6--6--------------|
D|--------------------------------|
A|--------------------------------|
E|--------------------------------|

 

GUITAR 1:

 

e|--5--5---7--7---7--7---7--7--|
B|--5--5---7--7---7--7---7--7--|
G|--6--6---8--8---9--9---8--8--|
D|--7--7---9--9---9--9---9--9--|
A|--7--7---9--9---7--7---9--9--|
E|--5--5---7--7----------7--7--|

 

GUITAR 2:

 

e|-------------------------------------------------------|
B|--12--12--10--10--9--9--10--12---12--10--10--9--9--10--|
G|-------------------------------------------------------|
D|-------------------------------------------------------|
A|-------------------------------------------------------|
E|-------------------------------------------------------|

 

GUITAR 1:

 

e|--5--5---7--7--7--7---8---8---8----10--10--|
B|--5--5---7--7--7--7---8---8---8----10--10--|
G|--6--6---8--8--8--8---9---9---9----11--11--|
D|--7--7---9--9--9--9---10--10--10---12--12--|
A|--7--7---9--9--9--9---10--10--10---12--12--|
E|--5--5---7--7--7--7---8---8---8----10--10--|

 

GUITAR 2:

 

e|-------------------------------------------|
B|--------------------8---7--10--7---10--10--|
G|--6--9--6--9--6--6-------------------------|
D|-------------------------------------------|
A|-------------------------------------------|
E|-------------------------------------------|

 

GUITAR 1:

 

e|--5--5---7--7---7--7---7--7--|
B|--5--5---7--7---7--7---7--7--|
G|--6--6---8--8---9--9---8--8--|
D|--7--7---9--9---9--9---9--9--|
A|--7--7---9--9---7--7---9--9--|
E|--5--5---7--7----------7--7--|

 

GUITAR 2:

 

e|-------------------------------------------------------|
B|--12--12--10--10--9--9--10--12---12--10--10--9--9--10--|
G|-------------------------------------------------------|
D|-------------------------------------------------------|
A|-------------------------------------------------------|
E|-------------------------------------------------------|

 

GUITAR 1:

 

e|--5--5---7--7--7--7---8---8---8----10--10--|
B|--5--5---7--7--7--7---8---8---8----10--10--|
G|--6--6---8--8--8--8---9---9---9----11--11--|
D|--7--7---9--9--9--9---10--10--10---12--12--|
A|--7--7---9--9--9--9---10--10--10---12--12--|
E|--5--5---7--7--7--7---8---8---8----10--10--|

 

GUITAR 2:

 

e|-----------------------------------|
B|--------------------8---7----------|
G|--6--9--6--9--6--6----------6-/-9--|
D|-----------------------------------|
A|-----------------------------------|
E|-----------------------------------|

 

GUITAR 1:

 

e|--7--7--7--7---7--7--7--7---7--7--7--7---7--7--7--7--|
B|--7--7--7--7---7--7--7--7---7--7--7--7---7--7--7--7--|
G|--9--9--7--7---9--9--7--7---9--9--7--7---9--9--7--7--|
D|--9--9--7--7---9--9--7--7---9--9--7--7---9--9--7--7--|
A|--7--7--7--7---7--7--7--7---7--7--7--7---7--7--7--7--|
E|-----------------------------------------------------|

 

 

Cagayake! GIRLS - Tron544
00:00 / 00:00

©2019 by Fefe - Tron544

Sigueme en:

  • YouTube - White Circle
  • Facebook - White Circle
  • Instagram - White Circle
  • Twitter - White Circle
This site was designed with the
.com
website builder. Create your website today.
Start Now