~ BUTTER-FLY ~

TABLATURAS ~ By Fefe - Tron544

 

Intro:

 

GUITAR 1:

 

  /~~~~~~~~~( REPEAT x2 / REPITE x2 )~~~~~~~~~\

e|---------------------------------------------|

B|---------------------------------------------|

G|--9--9--9--7--7--6--7---9--9--9--7--7--6--7--|

D|--9--9--9--7--7--6--7---9--9--9--7--7--6--7--|

A|--7--7--7--5--5--4--5---7--7--7--5--5--4--5--|

E|---------------------------------------------|

 

GUITAR 3:

 

e|--------------------------------------------------------|

B|--------------------------------------------------------|

G|--13--14--13--11--9--11--14---13--14--13--11--9--11--7--|

D|--------------------------------------------------------|

A|--11--12--11--9---7--9---12---11--12--11--9---7--9---5--|

E|--------------------------------------------------------|

 

GUITAR 1:

 

e|---------------------------------------------|

B|---------------------------------------------|

G|--9--9--9--7--7--6--7---9--9--9--7--7--6--2--|

D|--9--9--9--7--7--6--7---9--9--9--7--7--6--2--|

A|--7--7--7--5--5--4--5---7--7--7--5--5--4--0--|

E|---------------------------------------------|

 

GUITAR 3:

 

e|-----------------------------------------------------------|

B|-----------------------------------------------------------|

G|--13--14--13--11--9--11--14---13--14--13--11--9--11--7--7--|

D|-----------------------------------------------------------|

A|--11--12--11--9---7--9---12---11--12--11--9---7--9---5--5--|

E|-----------------------------------------------------------|

 

 

Verse/Estrofa:

 

GUITAR 1:

 

e|----------------------------------------------------------------------------------------|

B|----------------------------------------------------------------------------------------|

G|----------------------------------------------------------------------------------------|

D|--2--x--x--x--x--x--x--x--x--x--x--x--x---4--6--x--x--x--x--x--x--x--x--x--x--x--x---6--|

A|--2--x--x--x--x--x--x--x--x--x--x--x--x---4--6--x--x--x--x--x--x--x--x--x--x--x--x---6--|

E|--0--x--x--x--x--x--x--x--x--x--x--x--x---2--4--x--x--x--x--x--x--x--x--x--x--x--x---4--|

 

GUITAR 2:

 

e|----------------------------------------------------------------------|

B|----------------------------------------------------------------------|

G|-----------------------6---------------------------6--8---------------|

D|--6--6--9--9--9--9--6-----9------6--9--9--9--9--6---------6-----6-----|

A|------------------------------9------------------------------9-----9--|

E|----------------------------------------------------------------------|

 

GUITAR 1:

 

e|-----------------------------------------------------------------------------|

B|-----------------------------------------------------------------------------|

G|---------------------5--5--7--7--7-------------------------------------------|

D|--7--x--x--x--x--x---5--5--7--7--7-------------------------------------------|

A|--7--x--x--x--x--x---3--3--5--5--5-------------------------------------------|

E|--5--x--x--x--x--x-------------------0--3--4--0--3--4--0---0--2--0--3--0--4--|

 

GUITAR 2:

 

e|--------------------------------------|

B|--------------------------------------|

G|--------------------------------------|

D|-------------------------7------------|

A|--7--7------7--10--9--7-----10--9--7--|

E|---------9----------------------------|

 

GUITAR 3:

 

e|------------------------------------------------|

B|------------------------------------------------|

G|------------------------------------------------|

D|------------------------------------------------|

A|--7--10--11--7--10--11--7---7--9--7--10--7--11--|

E|------------------------------------------------|

 

GUITAR 1:

 

e|----------------------------------------------------------------------------------------|

B|----------------------------------------------------------------------------------------|

G|----------------------------------------------------------------------------------------|

D|--2--x--x--x--x--x--x--x--x--x--x--x--x---4--6--x--x--x--x--x--x--x--x--x--x--x--x---6--|

A|--2--x--x--x--x--x--x--x--x--x--x--x--x---4--6--x--x--x--x--x--x--x--x--x--x--x--x---6--|

E|--0--x--x--x--x--x--x--x--x--x--x--x--x---2--4--x--x--x--x--x--x--x--x--x--x--x--x---4--|

 

GUITAR 2:

 

e|----------------------------------------------------------------------|

B|----------------------------------------------------------------------|

G|-----------------------6---------------------------6--8---------------|

D|--6--6--9--9--9--9--6-----9------6--9--9--9--9--6---------6-----6-----|

A|------------------------------9------------------------------9-----9--|

E|----------------------------------------------------------------------|

 

GUITAR 3:

 

e|--4--5---5--4------4--5---5--4--|

B|--5--5---5--5------5--5---5--5--|

G|--4--4---4--4------4--4---4--4--|

D|--------------------------------|

A|--------------------------------|

E|--------------------------------|

 

GUITAR 1:

 

e|-----------------------------------------------------------------------------|

B|-----------------------------------------------------------------------------|

G|---------------------5--5--7--7--7-------------------------------------------|

D|--7--x--x--x--x--x---5--5--7--7--7-------------------------------------------|

A|--7--x--x--x--x--x---3--3--5--5--5-------------------------------------------|

E|--5--x--x--x--x--x-------------------0--3--4--0--3--4--0---0--2--0--3--0--4--|

 

GUITAR 2:

 

e|--------------------------------------|-----------|

B|--------------------------------------|-----------|

G|--------------------------------------|-----------|

D|-------------------------7------------|--6--9--6--|

A|--7--7------7--10--9--7-----10--9--7--|-----------|

E|---------9----------------------------|-----------|

 

GUITAR 3:

 

e|--------------------------------------------------------|

B|--------------------------------------------------------|

G|--5---7-------------------------------------------------|

D|--5---7-------------------------------------------------|

A|--3---5---7--10--11--7--10--11--7---7--9--7--10--7--11--|

E|--------------------------------------------------------|

 

 

Pre-Chorus/Pre-Estribillo:

 

GUITAR 1:

 

e|-----------------------------------------------------------------------------------------|

B|-----------------------------------------------------------------------------------------|

G|--6--x--x--6--x--x--6-----------------------------------------------9--x--x--9--x--x--9--|

D|--6--x--x--6--x--x--6---6--x--x--6--x--x--6---7--x--x--7--x--x--7---9--x--x--9--x--x--9--|

A|--4--x--x--4--x--x--4---6--x--x--6--x--x--6---7--x--x--7--x--x--7---7--x--x--7--x--x--7--|

E|------------------------4--x--x--4--x--x--4---5--x--x--5--x--x--5------------------------|

 

GUITAR 2:

 

e|---------------------------------------------------------------------|

B|---------------------------------------------------------------------|

G|--9--8--6------------------------------------------------------------|

D|-----------9--6---6-----6-----------------------6-h-7--6----6--9--6--|

A|---------------------9-----9--7--7-----7--9--7-----------------------|

E|------------------------------------9--------------------------------|

 

GUITAR 3:

 

e|--9--x--x--9--x--x--9--------------------------------------------------12--x--x--12--x--x--12--|

B|--9--x--x--9--x--x--9---9--x--x--9--x--x--9---10--x--x--10--x--x--10---12--x--x--12--x--x--12--|

G|--6--x--x--6--x--x--6---8--x--x--8--x--x--8---9---x--x--9---x--x--9----9---x--x--9---x--x--9---|

D|------------------------6--x--x--6--x--x--6---7---x--x--7---x--x--7----------------------------|

A|-----------------------------------------------------------------------------------------------|

E|-----------------------------------------------------------------------------------------------|

 

GUITAR 1:

 

e|----------------------------------------------------------------------------|

B|----------------------------------------------------------------------------|

G|--6--x--x--6--x--x--6---------------------------------------5--5---7--7--7--|

D|--6--x--x--6--x--x--6---6--x--x--6--x--x--6---7--7---9--9---5--5---7--7--7--|

A|--4--x--x--4--x--x--4---6--x--x--6--x--x--6---7--7---9--9---3--3---5--5--5--|

E|------------------------4--x--x--4--x--x--4---5--5---7--7-------------------|

 

GUITAR 2:

 

e|---------------------------------------------------------|

B|---------------------------------------------------------|

G|--9--8--6-----------------------------------------7------|

D|-----------9--6---6--7--6--7--9--7--9--10--9--10------9--|

A|---------------------------------------------------------|

E|---------------------------------------------------------|

 

GUITAR 3:

 

e|--9--x--x--9--x--x--9-------------------------------------------8--8---10--10--10--|

B|--9--x--x--9--x--x--9---9--x--x--9--x--x--9---10--10---12--12---8--8---10--10--10--|

G|--6--x--x--6--x--x--6---8--x--x--8--x--x--8---9---9----11--11---5--5---7---7---7---|

D|------------------------6--x--x--6--x--x--6---7---7----9---9-----------------------|

A|-----------------------------------------------------------------------------------|

E|-----------------------------------------------------------------------------------|

 

GUITAR 1:

 

e|------------|

B|------------|

G|--4------4--|

D|--4------4--|

A|--2------2--|

E|------------|

 

GUITAR 3:

 

e|--7----------------7----------------7---7--5--5--7-h-5--|

B|-----7-p-5--7-p-5-----7-p-5--7-p-5------7--5--5--7-h-5--|

G|--------------------------------------------------------|

D|--------------------------------------------------------|

A|--------------------------------------------------------|

E|--------------------------------------------------------|

 

 

Chorus/Estribillo:

 

GUITAR 1:

 

e|-----------------------------------------------------------------------------------------|

B|-----------------------------------------------------------------------------------------|

G|------------------------4--x--x--4--x--x--4---6--x--x--6--x--x--6------------------------|

D|--2--x--x--2--x--x--2---4--x--x--4--x--x--4---6--x--x--6--x--x--6---6--x--x--6--x--x--6--|

A|--2--x--x--2--x--x--2---2--x--x--2--x--x--2---4--x--x--4--x--x--4---6--x--x--6--x--x--6--|

E|--0--x--x--0--x--x--0-----------------------------------------------4--x--x--4--x--x--4--|

 

GUITAR 2:

 

e|-------------------------------------------------------------------|

B|-----------7--9--7--9--7----------------------9--7-----------7--7--|

G|-----9--9-----------------9--8--8-h-9---6--9--------9--9--9--------|

D|--6----------------------------------------------------------------|

A|-------------------------------------------------------------------|

E|-------------------------------------------------------------------|

 

GUITAR 1:

 

e|------------------------------------------------------------------------------------|

B|------------------------------------------------------------------------------------|

G|------------------------9--9---6--6--6---2--x--x--2--x--x--2---4--x--x--4--x--x--4--|

D|--7--x--x--7--x--x--7---9--9---6--6--6---2--x--x--2--x--x--2---4--x--x--4--x--x--4--|

A|--7--x--x--7--x--x--7---7--7---4--4--4---0--x--x--0--x--x--0---2--x--x--2--x--x--2--|

E|--5--x--x--5--x--x--5---------------------------------------------------------------|

 

GUITAR 2:

 

e|--------------------------------------------------------------------|

B|-----------------------------------------------------9--9--7-----7--|

G|--9---9--8--6--------9--6----6--9--6--9--6--9--6--6-----------9-----|

D|---------------9--6-------------------------------------------------|

A|--------------------------------------------------------------------|

E|--------------------------------------------------------------------|

 

GUITAR 1:

 

e|------------------------------------------------------------------------------------------|

B|------------------------------------------------------------------------------------------|

G|------------------------4--x--x--4--x--x---5---6--x--x--6--x--x--6------------------------|

D|--2--x--x--2--x--x--2---4--x--x--4--x--x---5---6--x--x--6--x--x--6---6--x--x--6--x--x--6--|

A|--2--x--x--2--x--x--2---2--x--x--2--x--x---3---4--x--x--4--x--x--4---6--x--x--6--x--x--6--|

E|--0--x--x--0--x--x--0------------------------------------------------4--x--x--4--x--x--4--|

 

GUITAR 2:

 

e|----------------------------------------------------7--------|

B|--------7--9--7--9--7----------------------9--7--7-----------|

G|--9--9-----------------9--8--8-h-9---6--9--------------9--8--|

D|-------------------------------------------------------------|

A|-------------------------------------------------------------|

E|-------------------------------------------------------------|

 

GUITAR 1:

 

e|---------------------------------------------------|

B|---------------------------------------------------|

G|-------------------------------6--6--6---5------7--|

D|--7--x--x--7--x--x--7---6--6---6--6--6---5------7--|

A|--7--x--x--7--x--x--7---6--6---4--4--4---3------5--|

E|--5--x--x--5--x--x--5---4--4-----------------------|

 

GUITAR 2:

 

e|----------------------------------------------------------|

B|-------------------------7--7-----------------------------|

G|--8-h-9---9--8--6--------------9----9---7---7-h-9--7-h-9--|

D|-------------------9--9-----------------------------------|

A|----------------------------------------------------------|

E|----------------------------------------------------------|

 

 

Outro:

 

GUITAR 1:

 

e|---------------------------------------------|

B|---------------------------------------------|

G|--9--9--9--7--7--6--7---9--9--9--7--7--6--7--|

D|--9--9--9--7--7--6--7---9--9--9--7--7--6--7--|

A|--7--7--7--5--5--4--5---7--7--7--5--5--4--5--|

E|---------------------------------------------|

 

GUITAR 3:

 

e|--------------------------------------------------------|

B|--------------------------------------------------------|

G|--13--14--13--11--9--11--14---13--14--13--11--9--11--7--|

D|--------------------------------------------------------|

A|--11--12--11--9---7--9---12---11--12--11--9---7--9---5--|

E|--------------------------------------------------------|

 

GUITAR 1:

 

e|---------------------------------------------|--------------|

B|---------------------------------------------|--------------|

G|--9--9--9--7--7--6--7---9--9--9--7--7--6--2--|--------------|

D|--9--9--9--7--7--6--7---9--9--9--7--7--6--2--|--6--7--9--2--|

A|--7--7--7--5--5--4--5---7--7--7--5--5--4--0--|--6--7--9--2--|

E|---------------------------------------------|--4--5--7--0--|

 

GUITAR 3:

 

e|------------------------------------------------------------|-----------------|

B|------------------------------------------------------------|-----------------|

G|--13--14--13--11--9--11--14---13--14--13--11--9--11--7--14--|--13--14--16--9--|

D|------------------------------------------------------------|-----------------|

A|--11--12--11--9---7--9---12---11--12--11--9---7--9---5--12--|--11--12--14--7--|

E|------------------------------------------------------------|-----------------|

 

 

Butter-Fly (Guitar Cover) - Tron544
00:00 / 00:00

©2019 by Fefe - Tron544

Sigueme en:

  • YouTube - White Circle
  • Facebook - White Circle
  • Instagram - White Circle
  • Twitter - White Circle
This site was designed with the
.com
website builder. Create your website today.
Start Now