BUDOKAI 3 (OP)

DRAGON BALL Z: BUDOKAI 3

TABS ~ By Fefe (Tron544)

 

Intro:

 

GUITAR 2:

 

e|--------------------------------------------------------------|

B|--------------------------------------------------------------|

G|--------------------------------------------------------------|

D|--14--9--9--14--9--9--14--9---14--9--9--14--9--9--14--9---14--|

A|--------------------------------------------------------------|

E|--------------------------------------------------------------|

 

GUITAR 1:

 

e|---------------------|--------------------------|--------------|

B|---------------------|--------7--9--7-----------|--------------|

G|--9--9--9--9-b-------|--6--9-----------9--8--6--|--6-----9--9--|

D|------------------9--|--------------------------|-----9--------|

A|---------------------|--------------------------|--------------|

E|---------------------|--------------------------|--------------|

 

GUITAR 2:

 

  /~~~~~~~~~~~~~~~~~~REPEAT~x3~/~REPITE~x3~~~~~~~~~~~~~~~~~~~~~\

e|--------------------------------------------------------------|

B|--------------------------------------------------------------|

G|--------------------------------------------------------------|

D|--14--9--9--14--9--9--14--9---14--9--9--14--9--9--14--9---14--|

A|--------------------------------------------------------------|

E|--------------------------------------------------------------|

GUITAR 1:

 

e|----------------------------|

B|-----------7----9--7--9--7--|

G|--6--9--9-------------------|

D|----------------------------|

A|----------------------------|

E|----------------------------|

 

GUITAR 2:

e|----------------------------------------|

B|----------------------------------------|

G|----------------------------------------|

D|-------------------------------6--7--9--|

A|-----7--7--9----------6--7--9-----------|

E|--9-------------7--9--------------------|

 

GUITAR 1:

 

e|---------------------|--------------7-----------|

B|---------------------|--------7--9-----9--7-----|

G|--9--9--9--9-b-------|--6--9-----------------9--|

D|------------------9--|--------------------------|

A|---------------------|--------------------------|

E|---------------------|--------------------------|

 

GUITAR 2:

 

e|------------------------------------------------|------------------------------------------------|

B|------------------------------------------------|------------------------------------------------|

G|--9--x--x--x---x--x--x----8--x--x--x---x--x--x--|--6--x--x--x---x--x--x----4--x--x--x---x--x--x--|

D|--9--x--x--x---x--x--x----8--x--x--x---x--x--x--|--6--x--x--x---x--x--x----4--x--x--x---x--x--x--|

A|--7--x--x--x---x--x--x----6--x--x--x---x--x--x--|--4--x--x--x---x--x--x----2--x--x--x---x--x--x--|

E|------------------------------------------------|------------------------------------------------|

 

GUITAR 1:

 

e|---------------------|

B|-----10--9-----7-----|

G|--9---------9-----9--|

D|---------------------|

A|---------------------|

E|---------------------|

 

GUITAR 2:

 

e|------------------------------------------------|-----------------------------|

B|------------------------------------------------|-----------------------------|

G|--2--x--x--x---x--x--x----4--x--x--x---x--x--x--|--9---7---9---x--x--x--x--x--|

D|--2--x--x--x---x--x--x----4--x--x--x---x--x--x--|--9---7---9---x--x--x--x--x--|

A|--0--x--x--x---x--x--x----2--x--x--x---x--x--x--|--7---5---7---x--x--x--x--x--|

E|------------------------------------------------|-----------------------------|

 

e|---------------------------------|---------------------------------------|

B|---------------------------------|---------------------------------------|

G|--7-----6---7---9-----9---7---9--|------------9---7---9---x--x--x--x--x--|

D|--7-----6---7---9-----9---7---9--|--7---5-----9---7---9---x--x--x--x--x--|

A|--5-----4---5---7-----7---5---7--|--7---5-----7---5---7---x--x--x--x--x--|

E|---------------------------------|--5---3--------------------------------|

 

e|---------------------------------|-------------------------|

B|---------------------------------|-------------------------|

G|--7-----6---7---9-----9---7---9--|-------------------------|

D|--7-----6---7---9-----9---7---9--|--7---5---7---8---7---5--|

A|--5-----4---5---7-----7---5---7--|--7---5---7---8---7---5--|

E|---------------------------------|--5---3---5---6---5---3--|

 

 

Verse/Estrofa:

 

GUITAR 1:

 

e|--------------------------------------------|

B|--------------------------------------------|

G|--------------------------------------------|

D|---------7--9----------9--7----5--7--5------|

A|--7--10--------7--7----------------------7--|

E|--------------------------------------------|

 

GUITAR 2:

 

e|---------------------------------------------------------------------------------------|

B|---------------------------------------------------------------------------------------|

G|--9--x--x--x---x--x--x--x---x--x--x--x---x--x--x--x------------------------------------|

D|--9--x--x--x---x--x--x--x---x--x--x--x---x--x--x--x---7-----5---7---5---2--------------|

A|--7--x--x--x---x--x--x--x---x--x--x--x---x--x--x--x---7-----5---7---5---2-----------5--|

E|------------------------------------------------------5-----3---5---3---0-----5--7-----|

 

GUITAR 1:

 

e|-----------------------------------------|

B|-----------------------------------------|

G|-----------------------------------------|

D|---------7--9----------9--12----5--------|

A|--7--10--------7--7----------------8--5--|

E|-----------------------------------------|

 

GUITAR 2:

 

e|---------------------------------------------------------------------------------|

B|---------------------------------------------------------------------------------|

G|--9--x--x--x---x--x--x--x---x--x--x--x---x--x--x--x---7-------------------7---6--|

D|--9--x--x--x---x--x--x--x---x--x--x--x---x--x--x--x---7-----7---5---2-----7---6--|

A|--7--x--x--x---x--x--x--x---x--x--x--x---x--x--x--x---5-----7---5---2-----5---4--|

E|------------------------------------------------------------5---3---0------------|

 

GUITAR 1:

 

e|-------------------------------------------|

B|-------------------------------------------|

G|--9----------------------------------------|

D|-----9--7------7--9--9------12----11----9--|

A|-----------10------------------------------|

E|-------------------------------------------|

 

GUITAR 2:

 

e|---------------------------------------------------------------------------------|

B|---------------------------------------------------------------------------------|

G|--9--x--x--x---x--x--x--x---x--x--x--x---x--x--x--x---7--------------------------|

D|--9--x--x--x---x--x--x--x---x--x--x--x---x--x--x--x---7-----7-----2--------------|

A|--7--x--x--x---x--x--x--x---x--x--x--x---x--x--x--x---5-----7-----2-----------5--|

E|------------------------------------------------------------5-----0-----5--7-----|

 

GUITAR 1:

 

e|--------------------------------------------|

B|--------------------------------------------|

G|--------------------------------------------|

D|---------7--9----------9--7----5--7--5------|

A|--7--10--------7--7----------------------7--|

E|--------------------------------------------|

 

GUITAR 2:

 

e|---------------------------------------------------------------------------|

B|---------------------------------------------------------------------------|

G|--9--x--x--x---x--x--x--x---x--x--x--x---x--x--x--x------------------------|

D|--9--x--x--x---x--x--x--x---x--x--x--x---x--x--x--x---7-----5---7---5---2--|

A|--7--x--x--x---x--x--x--x---x--x--x--x---x--x--x--x---7-----5---7---5---2--|

E|------------------------------------------------------5-----3---5---3---0--|

Budokai 3 Opening - Tron544
00:00 / 00:00
DONATE%20BUTTON%20(EN)_edited.png

Pre-Chorus/Pre-Estribillo:

 

GUITAR 1:

 

e|---------------------------------------------------------------------------------------------------------|

B|---------------------------------------------------------------------------------------------------------|

G|--5--x--x--x---x--x--x--x---x--x--x--x---x--x--x--x---7--x--x--x---x--x--x--x---x--x--x--x---x--x--x--x--|

D|--5--x--x--x---x--x--x--x---x--x--x--x---x--x--x--x---7--x--x--x---x--x--x--x---x--x--x--x---x--x--x--x--|

A|--3--x--x--x---x--x--x--x---x--x--x--x---x--x--x--x---5--x--x--x---x--x--x--x---x--x--x--x---x--x--x--x--|

E|---------------------------------------------------------------------------------------------------------|

 

GUITAR 2:

 

e|-------------------------------------------------------|

B|-------------------------------------------------------|

G|-------------------------------------------------------|

D|--9--9--9--10--9--7--5--7--5--7--5----9----9--7--5--9--|

A|-------------------------------------------------------|

E|-------------------------------------------------------|

 

GUITAR 3:

 

e|--14-b--14--10----12--|

B|----------------------|

G|----------------------|

D|----------------------|

A|----------------------|

E|----------------------|

 

GUITAR 1:

 

e|-------------------------------------------------------------------------------------|

B|-------------------------------------------------------------------------------------|

G|--5--x--x--x---x--x--x--x---x--x--x--x---x--x--x--5------------------2---4--4--4--4--|

D|--5--x--x--x---x--x--x--x---x--x--x--x---x--x--x--5-----4--4--4--4---2---4--4--4--4--|

A|--3--x--x--x---x--x--x--x---x--x--x--x---x--x--x--3-----4--4--4--4---0---2--2--2--2--|

E|--------------------------------------------------------2--2--2--2-------------------|

 

GUITAR 2:

 

e|------------------------------------------------------------------|

B|----------------------------------8----7--7--7--7-----------------|

G|----------------------7--9--8--9-------------------9--8--8--8--8--|

D|--9--9--9--10--9--10----------------------------------------------|

A|------------------------------------------------------------------|

E|------------------------------------------------------------------|

 

GUITAR 3:

 

e|--14--14--14--14----12--11--11--11--11--|

B|----------------------------------------|

G|----------------------------------------|

D|----------------------------------------|

A|----------------------------------------|

E|----------------------------------------|

 

 

Chorus/Estribillo:

 

GUITAR 1:

 

e|---------------------|--------------------------|

B|---------------------|--------7--9--7-----------|

G|--9--9--9--9-b-------|--6--9-----------9--8--6--|

D|------------------9--|--------------------------|

A|---------------------|--------------------------|

E|---------------------|--------------------------|

 

GUITAR 2:

 

e|------------------------------------------------|------------------------------------------------|

B|------------------------------------------------|------------------------------------------------|

G|--9--x--x--x---x--x--x----8--x--x--x---x--x--x--|--6--x--x--x---x--x--x----4--x--x--x---x--x--x--|

D|--9--x--x--x---x--x--x----8--x--x--x---x--x--x--|--6--x--x--x---x--x--x----4--x--x--x---x--x--x--|

A|--7--x--x--x---x--x--x----6--x--x--x---x--x--x--|--4--x--x--x---x--x--x----2--x--x--x---x--x--x--|

E|------------------------------------------------|------------------------------------------------|

 

GUITAR 1:

 

e|--------------|----------------------------|

B|--------------|-----------7----9--7--9--7--|

G|--6-----9--9--|--6--9--9-------------------|

D|-----9--------|----------------------------|

A|--------------|----------------------------|

E|--------------|----------------------------|

 

GUITAR 2:

 

e|-----------------------------------------------|----------------------------------------|

B|-----------------------------------------------|----------------------------------------|

G|--2--x--x--x---x--x--x-------------------------|----------------------------------------|

D|--2--x--x--x---x--x--x---6--x--x--x---x--x--x--|-------------------------------6--7--9--|

A|--0--x--x--x---x--x--x---6--x--x--x---x--x--x--|-----7--7--9----------6--7--9-----------|

E|-------------------------4--x--x--x---x--x--x--|--9-------------7--9--------------------|

 

GUITAR 1:

 

e|---------------------|--------------7-----------|

B|---------------------|--------7--9-----9--7-----|

G|--9--9--9--9-b-------|--6--9-----------------9--|

D|------------------9--|--------------------------|

A|---------------------|--------------------------|

E|---------------------|--------------------------|

 

GUITAR 2:

 

e|------------------------------------------------|------------------------------------------------|

B|------------------------------------------------|------------------------------------------------|

G|--9--x--x--x---x--x--x----8--x--x--x---x--x--x--|--6--x--x--x---x--x--x----4--x--x--x---x--x--x--|

D|--9--x--x--x---x--x--x----8--x--x--x---x--x--x--|--6--x--x--x---x--x--x----4--x--x--x---x--x--x--|

A|--7--x--x--x---x--x--x----6--x--x--x---x--x--x--|--4--x--x--x---x--x--x----2--x--x--x---x--x--x--|

E|------------------------------------------------|------------------------------------------------|

 

GUITAR 1:

 

e|---------------------|-------------|

B|-----10--9-----7-----|--7--7-------|

G|--9---------9-----9--|----------9--|

D|---------------------|-------------|

A|---------------------|-------------|

E|---------------------|-------------|

 

GUITAR 2:

 

e|------------------------------------------------|------------|

B|------------------------------------------------|------------|

G|--2--x--x--x---x--x--x----4--x--x--x---x--x--x--|--5------7--|

D|--2--x--x--x---x--x--x----4--x--x--x---x--x--x--|--5------7--|

A|--0--x--x--x---x--x--x----2--x--x--x---x--x--x--|--3------5--|

E|------------------------------------------------|------------|

 

 

Outro:

 

e|------------------------------------------------|------------------------------------------------|

B|------------------------------------------------|------------------------------------------------|

G|--7-/-9--9---7-/-9--9---7-/-9--9--9---7-/-9--9--|--7-/-9--9---7-/-9--9---7-/-9--9--9---7-/-9--9--|

D|--7-/-9--9---7-/-9--9---7-/-9--9--9---7-/-9--9--|--7-/-9--9---7-/-9--9---7-/-9--9--9---7-/-9--9--|

A|--5-/-7--7---5-/-7--7---5-/-7--7--7---5-/-7--7--|--5-/-7--7---5-/-7--7---5-/-7--7--7---5-/-7--7--|

E|------------------------------------------------|------------------------------------------------|

 

e|----------------------------12----------------------------------------------|

B|--12----15----12--------12------15--12--------------------------------------|

G|--------------------14------------------14--12------------------------------|

D|------------------------------------------------14--12------------------14--|

A|--------------------------------------------------------14--12----------14--|

E|----------------------------------------------------------------15--12--12--|

©2015 by Fefe - Tron544

Sigueme en:

  • YouTube - White Circle
  • Facebook - White Circle
  • Instagram - White Circle
  • Twitter - White Circle
This site was designed with the
.com
website builder. Create your website today.
Start Now