~ BUDOKAI 2 OPENING ~

TABLATURAS ~ By Fefe - Tron544

 

Intro:

 

e|---------------------------------------|---------------------|

B|--5---------------8--6--5--------------|---------------------|

G|-----7--5------------------7--5--------|--------5--6--7--10--|

D|-----------7---------------------8--5--|--5--8---------------|

A|---------------------------------------|---------------------|

E|---------------------------------------|---------------------|

 

e|-----------------------------|-----------------------|-----------------------|

B|-----------------------------|-----------------------|-----------------------|

G|-----------------------------|--5--5-----------------|--5--5-----------------|

D|--5--5--5--5--8--5-----5--8--|--------8--5-----5--8--|--------8--5-----5--8--|

A|--------------------8--------|--------------8--------|--------------8--------|

E|-----------------------------|-----------------------|-----------------------|

 

   Ending/Final A   Ending/Final B 

e|-----------------|-------------|

B|-----------------|-------------|

G|-----------------|--8------10--|

D|-----5--8--5--5--|-------------|

A|--8--------------|-------------|

E|-----------------|-------------|

 

 

Verse/Estrofa:

 

e|-----------------------|-----------------------|

B|-----------------------|-----------------------|

G|--7--7--7--7-----------|-----------------------|

D|--------------5--5--5--|--5--5--5--------5--5--|

A|-----------------------|-----------8--8--------|

E|-----------------------|-----------------------|

 

e|-----------------------|--------------------------|---------------------------|

B|-----------------------|--------------------------|---------------------------|

G|--7--7--7--7-----------|--------------------------|--5--5------------5--5-----|

D|--------------5--5--5--|--5--5--5--------5--8--5--|--------8--5------------8--|

A|-----------------------|-----------8--8-----------|---------------------------|

E|-----------------------|--------------------------|---------------------------|

 

e|-----------------------|-----------------------|

B|-----------------------|-----------------------|

G|--7--7--7--7-----------|-----------------------|

D|--------------5--5--5--|--5--5--5--------5--5--|

A|-----------------------|-----------8--8--------|

E|-----------------------|-----------------------|

 

e|--------------------------------|------------------------------|

B|-----------6--------------------|------------------------------|

G|--5--7--5-----7--5-----5--7-----|--5--5------------------------|

D|--------------------8--------8--|--------8--5---------5--8--5--|

A|--------------------------------|------------------8-----------|

E|--------------------------------|------------------------------|

 

e|------------|-----------------------|------------|-----------------------|

B|------------|-----------------------|------------|--8--------------------|

G|--10--9--7--|-----------------------|--10--9--7--|-----7--5-----5--7-----|

D|------------|--5--5--5--8--5--5--5--|------------|-----------8--------8--|

A|------------|-----------------------|------------|-----------------------|

E|------------|-----------------------|------------|-----------------------|

 

e|---------------|--------------------------------------------|--------------------|

B|------------8--|--------------------------------------------|--------------------|

G|--10--9--7-----|--------------7--5--------------------------|--7--7--7--5--6--7--|

D|---------------|--5--5--5--8--------8--7-7-7-7-7-7-7-7-7-7--|--------------------|

A|---------------|--------------------------------------------|--------------------|

E|---------------|--------------------------------------------|--------------------|

 

 

Chorus/Estribillo: x2

 

e|------------------|----------------------------------|

B|--15--15--15--17--|--20--19--17--15--15--17--15------|

G|------------------|------------------------------16--|

D|------------------|----------------------------------|

A|------------------|----------------------------------|

E|------------------|----------------------------------|

 

e|------------------|--------------------------------------|

B|--15--15--15--17--|--20--19--17--15------15--17--19--17--|

G|------------------|------------------16------------------|

D|------------------|--------------------------------------|

A|------------------|--------------------------------------|

E|------------------|--------------------------------------|

 

e|------------------|---------------------------------------------------|----------------------|

B|--15--15--15--17--|--20--20b--15--17--15------------------------------|--17--17--15--19--17--|

G|------------------|-----------------------16--14--14--16--14----------|----------------------|

D|------------------|-------------------------------------------17--17--|----------------------|

A|------------------|---------------------------------------------------|----------------------|

E|------------------|---------------------------------------------------|----------------------|

 

 

Outro:

 

e|---------------------------------------|-----------|--------------------------|

B|--5---------------8--6--5--------------|--5--5--5--|--------5--6--7--5-----5--|

G|-----7--5------------------7--5--------|-----------|--5--7--------------7-----|

D|-----------7---------------------8--5--|-----------|--------------------------|

A|---------------------------------------|-----------|--------------------------|

E|---------------------------------------|-----------|--------------------------|

 

Budokai 2 Opening - Tron544
00:00 / 00:00

©2019 by Fefe - Tron544

Sigueme en:

  • YouTube - White Circle
  • Facebook - White Circle
  • Instagram - White Circle
  • Twitter - White Circle
This site was designed with the
.com
website builder. Create your website today.
Start Now