BREAK UP!

DIGIMON ADVENTURE 02

TABS ~ By Fefe (Tron544)

 

Intro:

 

e|----------------------------------------------|

B|---------8---------8--------------------------|

G|--7--10-----7--10-----7--10--8--7----------7--|

D|-----------------------------------10--10-----|

A|----------------------------------------------|

E|----------------------------------------------|

 

e|-------------------------------|

B|-------------------------------|

G|--8--8--8--7-------------------|

D|--------------7--10--10--8--8--|

A|-------------------------------|

E|-------------------------------|

 

e|----------------------------------------------|--------------------------|

B|---------8---------8--------------------------|--------------------------|

G|--7--10-----7--10-----7--10--8--7----------7--|--8--8--8--7--10--12--12--|

D|-----------------------------------10--10-----|--------------------------|

A|----------------------------------------------|--------------------------|

E|----------------------------------------------|--------------------------|

 

e|------------------------------|----------15----------15--|

B|--15--13------11--13--15--13--|--15--18------15--18------|

G|------------------------------|--------------------------|

D|------------------------------|--------------------------|

A|------------------------------|--------------------------|

E|------------------------------|--------------------------|

 

e|------------------------------|------------------------------|-----------------|

B|--15--18--16--15----------15--|--16--16--16--15--18--18--20--|--13br--p11------|

G|------------------17--17------|------------------------------|-------------12--|

D|------------------------------|------------------------------|-----------------|

A|------------------------------|------------------------------|-----------------|

E|------------------------------|------------------------------|-----------------|

Break Up! - Tron544
00:00 / 00:00
DONATE%20BUTTON%20(EN)_edited.png

Verse/Estrofa:

 

e|-------------------------------------------------------|-------------------------------|

B|-------------------------------------------------------|-------------------------------|

G|-------------------------------------------------------|-------------------------------|

D|--8--8--8--8--8--10----------8--8--8--8--8--8--10------|--7--7--8--10--8--7------7-----|

A|---------------------10----------------------------10--|---------------------10-----8--|

E|-------------------------------------------------------|-------------------------------|

 

e|----------------------------------------------------------|

B|----------------------------------------------------------|

G|----------------------------------------------------------|

D|----------7--8--7------7--8--10--8--10--10------8--10--7--|

A|--10--10--------------------------------------------------|

E|----------------------------------------------------------|

 

e|-------------------------------------------------------|-------------------------------|

B|-------------------------------------------------------|-------------------------------|

G|-------------------------------------------------------|-------------------------------|

D|--8--8--8--8--8--10----------8--8--8--8--8--8--10------|--7--7--8--10--8--7------7-----|

A|---------------------10----------------------------10--|---------------------10-----8--|

E|-------------------------------------------------------|-------------------------------|

 

e|-----------------------------------------------------------|

B|-----------------------------------------------------------|

G|-----------------------------------------------------------|

D|----------7--8--7------7--7--8--10--8--10--12--10--15--12--|

A|--10--10---------------------------------------------------|

E|-----------------------------------------------------------|

 

e|-----------------------------------------------------------------|

B|-----------------------------------------------------------------|

G|-----------------7--7/5--5------------------------------------7--|

D|--8--8--8--7--8-----------------8--8--8--7--8--10--10--8--10-----|

A|-----------------------------------------------------------------|

E|-----------------------------------------------------------------|

 

e|-----------------------------------------|

B|--------6-----------------6--------------|

G|--7--5-----7--7--7--7--5-----7-----5--7--|

D|--------------------------------8--------|

A|-----------------------------------------|

E|-----------------------------------------|

 

 

Chorus/Estribillo:

 

e|----------------------------------------------|-------------------------------|

B|---------8---------8--------------------------|-------------------------------|

G|--7--10-----7--10-----7--10--8--7----------7--|--8--8--8--7-------------------|

D|-----------------------------------10--10-----|--------------7--10--10--8--8--|

A|----------------------------------------------|-------------------------------|

E|----------------------------------------------|-------------------------------|

 

e|----------------------------------------------|--------------------------|

B|---------8---------8--------------------------|--------------------------|

G|--7--10-----7--10-----7--10--8--7----------7--|--8--8--8--7--10--12--12--|

D|-----------------------------------10--10-----|--------------------------|

A|----------------------------------------------|--------------------------|

E|----------------------------------------------|--------------------------|

 

         Ending/Final A                              Ending/Final B

e|------------------------------|------------15----------15--------------------------15--|

B|--15--13------11--13--15--13--|----15--18------15--18------15--18--15--18--15--18------|

G|------------------------------|--------------------------------------------------------|

D|------------------------------|--------------------------------------------------------|

A|------------------------------|--------------------------------------------------------|

E|------------------------------|--------------------------------------------------------|

 

 

Bridge/Puente:

 

                              Repeats/Repite

e|----------------------|------------------------|

B|----------------------|------------------------|

G|--7----10----7----10--|--x--x--x--x--7h9--7h9--|

D|--7----10----7----10--|------------------------|

A|--5----8-----5----8---|------------------------|

E|----------------------|------------------------|

©2015 by Fefe - Tron544

Sigueme en:

  • YouTube - White Circle
  • Facebook - White Circle
  • Instagram - White Circle
  • Twitter - White Circle
This site was designed with the
.com
website builder. Create your website today.
Start Now