BRAVE HEART

DIGIMON ADVENTURE 01

TABS ~ By Fefe (Tron544)

 

Intro:

 

GUITAR 2:

 

e|---------------------------------|

B|---------------------------------|

G|--5-(H)--------------------------|

D|--5-(H)-\W\-/W/-\W\-/W/-\W\-/W/--|

A|---------------------------------|

E|---------------------------------|

 

GUITAR 1:

 

e|-----------------------------|

B|-----------------------------|

G|-----9--7-----------5--7--5--|

D|--7-------------9------------|

A|------------10---------------|

E|-----------------------------|

 

GUITAR 2:

 

e|--17-\W\-/W/-\W\-/W/-\W\-/W/---15-\W\-/W/-\W\-/W/-\W\-/W/----------------------------------|

B|-------------------------------------------------------------------------------------------|

G|------------------------------------------------------------3-(H)-\W\-/W/-\W\-/W/-\W\-/W/--|

D|-------------------------------------------------------------------------------------------|

A|-------------------------------------------------------------------------------------------|

E|-------------------------------------------------------------------------------------------|

 

GUITAR 1:

 

e|--------------------------|--------------------------|

B|--------------------------|--------------------------|

G|-----------------------2--|-----------------------2--|

D|--3------5------2------2--|--3------5------2------2--|

A|--3------5------2------0--|--3------5------2------0--|

E|--1------3------0---------|--1------3------0---------|

 

GUITAR 2:

 

e|----------------------------------|------------------------7--8--|

B|----------------------------------|------------10--8-------------|

G|-----9--7-----------5--7--5-------|-----9--7------------9--------|

D|--7-------------9--------------5--|--7---------------------------|

A|------------10--------------------|------------------------------|

E|----------------------------------|------------------------------|

 

GUITAR 1:

 

e|-----------------------------------------------------------------------|

B|-----------------------------------------------------------------------|

G|--3--x--x--x--x--3---5--5--5---3----3--x--x--x--x--3---5--5--5---3--3--|

D|--3--x--x--x--x--3------------------3--x--x--x--x--3-------------------|

A|--1--x--x--x--x--1---3--3--3---1----1--x--x--x--x--1---3--3--3---1--1--|

E|-----------------------------------------------------------------------|

 

GUITAR 2:

 

e|-----------------------------------------------------------------------|

B|-----------------------------------------------------------------------|

G|--5--7---9---7-------------------10-----10---9---7---------------------|

D|-----------------10--10--10--8-------8---------------10--10--10--8--8--|

A|-----------------------------------------------------------------------|

E|-----------------------------------------------------------------------|

 

 

Verse/Estrofa:

 

GUITAR 1:

 

e|--------------------------------------------------------------------------------------------|

B|--------------------------------------------------------------------------------------------|

G|--------------------------------------------------------------------5--x--5--x--5--x--5--5--|

D|--3--x--x--x---5--x---7--x--x--7---5--x--5--x---3--x--x--x---5--x---5--x--5--x--5--x--5--5--|

A|--3--x--x--x---5--x---7--x--x--7---5--x--5--x---3--x--x--x---5--x---3--x--3--x--3--x--3--3--|

E|--1--x--x--x---3--x---5--x--x--5---3--x--3--x---1--x--x--x---3--x---------------------------|

 

GUITAR 2:

 

e|---------------------------------------------------------------------------------|

B|---------------------------------------------------20-b-r-p-17-------------------|

G|-----------4--5--5--5--7--4-------------------------------------19-b-r-p-17------|

D|--7--5--7--------------------7--5--7----7--5---------------------------------19--|

A|----------------------------------------------7----------------------------------|

E|---------------------------------------------------------------------------------|

 

GUITAR 1:

 

e|---------------------------------------------------------------------------------------------|

B|---------------------------------------------------------------------------------------------|

G|---------------------------------------------------------------------------------4--x--4--x--|

D|--3--x--x--x---5--x---7--x--x--7---5--x--5--x---3--x--x--x---5--x---7--x--7--x---5--x--5--x--|

A|--3--x--x--x---5--x---7--x--x--7---5--x--5--x---3--x--x--x---5--x---7--x--7--x---2--x--2--x--|

E|--1--x--x--x---3--x---5--x--x--5---3--x--3--x---1--x--x--x---3--x---5--x--5--x---------------|

 

GUITAR 2:

 

e|------------------------------------------------------------------|

B|------------------------------------------------------------------|

G|-----------4--5--5--5--7--4-------------------4--5--4--5--7-------|

D|--7--5--7--------------------7--5--7----7--7-------------------5--|

A|------------------------------------------------------------------|

E|------------------------------------------------------------------|

 

 

Pre-Chorus/Pre-Estribillo:

 

GUITAR 1:

 

e|-----------------------------------------------------|

B|-----------------------------------------------------|

G|--5--5--5--5---4--4--4--4----------------------------|

D|--5--5--5--5---5--5--5--5---7--7--7--7---5--5--5--5--|

A|--3--3--3--3---2--2--2--2---7--7--7--7---5--5--5--5--|

E|----------------------------5--5--5--5---3--3--3--3--|

 

GUITAR 2:

 

e|----------------------------------------------------------------|

B|--6---5--5---5--------8------8-----------------------5----------|

G|----------------7--7------7------7---5--5---5--4--4------4------|

D|-------------------------------------------------------------7--|

A|----------------------------------------------------------------|

E|----------------------------------------------------------------|

 

GUITAR 1:

 

e|--------------------------------------------------------|

B|---------------3--3--3--3-------------------------------|

G|---------------2--2--2--2-------------------------------|

D|--3--3--3--3---0--0--0--0---5--5--5--5---6--6--6--6--6--|

A|--3--3--3--3----------------5--5--5--5---7--7--7--7--7--|

E|--1--1--1--1---2--2--2--2---3--3--3--3---4--4--4--4--4--|

 

GUITAR 2:

 

e|-------------------------------------------------------|

B|-------------------------------------------------------|

G|-----4--5--7------4--5--4---4---5---7--7----7-(H)-\W\--|

D|--7-----------7----------------------------------------|

A|-------------------------------------------------------|

E|-------------------------------------------------------|

 

 

First Chorus/Primer Estribillo:

 

GUITAR 1:

 

e|------------------------------------------------------|

B|------------------------------------------------------|

G|--5--5--5--5---4--4--4--4-----------------------------|

D|--5--5--5--5---5--5--5--5---6--6--6--6---7--7---5--5--|

A|--3--3--3--3---2--2--2--2---7--7--7--7---7--7---5--5--|

E|----------------------------4--4--4--4---5--5---3--3--|

 

GUITAR 2:

 

e|------------------------------------------------------------------|

B|--------5---5--8--6--5--------------------------6--5--------------|

G|--5--7------------------7----------4--5--7---7--------7--7--5--5--|

D|---------------------------5--5-----------------------------------|

A|------------------------------------------------------------------|

E|------------------------------------------------------------------|

 

GUITAR 1:

 

e|----------------------------------------------------------|

B|----------------------------------------------------------|

G|----------------------------5--5--5--5---7--7--9--10--12--|

D|--3--3--3--3---5--5--5--5---5--5--5--5--------------------|

A|--3--3--3--3---5--5--5--5---3--3--3--3---5--5--7--8---10--|

E|--1--1--1--1---3--3--3--3---------------------------------|

 

GUITAR 2:

 

e|--------------------------------------------|

B|-----------5-h-6--5--------5----5-----------|

G|-----4--5------------7--5----------7--5--7--|

D|--7-----------------------------------------|

A|--------------------------------------------|

E|--------------------------------------------|

 

GUITAR 1:

 

e|------------------------------------------------------|

B|------------------------------------------------------|

G|--5--5--5--5---4--4--4--4-----------------------------|

D|--5--5--5--5---5--5--5--5---6--6--6--6---7--7---5--5--|

A|--3--3--3--3---2--2--2--2---7--7--7--7---7--7---5--5--|

E|----------------------------4--4--4--4---5--5---3--3--|

 

GUITAR 2:

 

e|------------------------------------------------------------------|

B|--------5---5--8--6--5--------------------------6--5--------------|

G|--5--7------------------7----------4--5--7---7--------7--7--5--5--|

D|---------------------------5--5-----------------------------------|

A|------------------------------------------------------------------|

E|------------------------------------------------------------------|

 

GUITAR 1:

 

e|----------------------------------------------------------------------------------------|

B|----------------------------------------------------------------------------------------|

G|------------------------------7--7------------------------------------------------------|

D|--3--3--3---5---2--2--2---7---7--7--5--5---6--x--x---x--x--x--x---8--x--x---x--x--x--x--|

A|--3--3--3---5---2--2--2---7---5--5--5--5---6--x--x---x--x--x--x---8--x--x---x--x--x--x--|

E|--1--1--1---3---0--0--0---5---------3--3---4--x--x---x--x--x--x---6--x--x---x--x--x--x--|

 

GUITAR 2:

 

e|----------------------------------------------------------------------------------------|

B|-----6--5---------------8--6--5------------6--5-----------------------------------------|

G|--5--------7--5--4---4-----------7--5---5--------7--5-p-4--4-h-5--5------3--3--3--5--5--|

D|----------------------------------------------------------------------------------------|

A|----------------------------------------------------------------------------------------|

E|----------------------------------------------------------------------------------------|

Brave Heart - Tron544
00:00 / 00:00
DONATE%20BUTTON%20(EN)_edited.png

Solo: (GUITAR 2 = Wah-Wah)

 

GUITAR 1:

 

e|-----|

B|-----|

G|--5--|

D|--5--|

A|--3--|

E|-----|

 

GUITAR 2:

 

E|------------------------------------------------------------------------------------------|

B|------------------------------------------------------------------------------------------|

G|--15-b--15--------------------------------------------------------------------------------|

D|------------15--15-b--15p13h15-------------13-h-15-p-13-----------------------------------|

A|----------------------------------------------------------15-p-13----------------13-h-15--|

E|----------------------------------11-h-13--------------------------15-p-13-h-15-----------|

 

GUITAR 1:

 

e|---------------------------|

B|---------------------------|

G|---------------------------|

D|--3--3--3--3---5--5--5--5--|

A|--3--3--3--3---5--5--5--5--|

E|--1--1--1--1---3--3--3--3--|

 

GUITAR 2:

 

E|-----------------------------------------------------|

B|-----------------------------------------------------|

G|-----------------------------------------------------|

D|-----------------------------------------------------|

A|--13-h-15-p-13---------------------------------------|

E|----------------15-p-13-h-15-p-13--11-h-13-p-11-p-0--|

 

GUITAR 1:

 

e|----------------------------------------|

B|----------------------------------------|

G|----------------------------------------|

D|--3--3--3--3---5--5--5--5---3--3--3--3--|

A|--3--3--3--3---5--5--5--5---3--3--3--3--|

E|--1--1--1--1---3--3--3--3---1--1--1--1--|

 

GUITAR 2:  

 

E|-------------------16----------------------------------20--|

B|---------------17------18--16------------------------------|

G|--15-b--15-b---------------------------------15-h-17-------|

D|-------------------------------17---15-h-17----------------|

A|-----------------------------------------------------------|

E|-----------------------------------------------------------|

 

GUITAR 1:

 

e|--------------|

B|--------------|

G|--6--6--6--6--|

D|--6--6--6--6--|

A|--4--4--4--4--|

E|--------------|

 

GUITAR 2:

 

E|--18--16--15-h-16-p-15--13-h-15-p-13--13-----------------------------------|

B|------------------------------------------16--15-h-16-p-13-h-15-p-13-h-15--|

G|---------------------------------------------------------------------------|

D|---------------------------------------------------------------------------|

A|---------------------------------------------------------------------------|

E|---------------------------------------------------------------------------|

 

GUITAR 1:

 

e|---------------------------|

B|---------------------------|

G|--7--7--7--7---7--7--7--7--|

D|--7--7--7--7---7--7--7--7--|

A|--5--5--5--5---5--5--5--5--|

E|---------------------------|

 

GUITAR 2:

 

E|----------------------------------------------------------------|

B|------------------------------------------------------------20--|

G|--13-h-15-p-13-h-15---------------------------------------------|

D|---------------------13-h-15-p-13-h-15--------------------------|

A|----------------------------------------13-h-15-p-13-h-15-------|

E|----------------------------------------------------------------|

 

GUITAR 1:

 

e|---------------------------|

B|---------------------------|

G|---------------------------|

D|--5--5--5--5---5--5--5--5--|

A|--5--5--5--5---5--5--5--5--|

E|--3--3--3--3---3--3--3--3--|

 

GUITAR 2:

 

e|-----------------------------------------------------------|

B|---------------------------------5-(H)---------------------|

G|-----------------------5-h-7--0---------3-(H)-/W/-\W\-/W/--|

D|----------------5-h-7--------------------------------------|

A|---------5-h-7---------------------------------------------|

E|--6-h-8----------------------------------------------------|

 

 

 

Second Chorus/Segundo Estribillo:

 

GUITAR 1:

 

e|------------------------------------------------------|

B|------------------------------------------------------|

G|--5--5--5--5---4--4--4--4-----------------------------|

D|--5--5--5--5---5--5--5--5---6--6--6--6---7--7---5--5--|

A|--3--3--3--3---2--2--2--2---7--7--7--7---7--7---5--5--|

E|----------------------------4--4--4--4---5--5---3--3--|

 

GUITAR 2:

 

e|------------------------------------------------------------------|

B|--------5---5--8--6--5--------------------------6--5--------------|

G|--5--7------------------7----------4--5--7---7--------7--7--5--5--|

D|---------------------------5--5-----------------------------------|

A|------------------------------------------------------------------|

E|------------------------------------------------------------------|

 

GUITAR 1:

 

e|--------------------------------------------------------|

B|--------------------------------------------------------|

G|----------------------------5--5--5--5---------4--5--7--|

D|--3--3--3--3---5--5--5--5---5--5--5--5---5--7-----------|

A|--3--3--3--3---5--5--5--5---3--3--3--3---------2--3--5--|

E|--1--1--1--1---3--3--3--3----------------3--5-----------|

 

GUITAR 2:

 

e|--------------------------------------------|

B|-----------5-h-6--5--------5----5-----------|

G|-----4--5------------7--5----------7--5--7--|

D|--7-----------------------------------------|

A|--------------------------------------------|

E|--------------------------------------------|

 

GUITAR 1:

 

e|------------------------------------------------------|

B|------------------------------------------------------|

G|--5--5--5--5---4--4--4--4-----------------------------|

D|--5--5--5--5---5--5--5--5---6--6--6--6---7--7---5--5--|

A|--3--3--3--3---2--2--2--2---7--7--7--7---7--7---5--5--|

E|----------------------------4--4--4--4---5--5---3--3--|

 

GUITAR 2:

 

e|------------------------------------------------------------------|

B|--------5---5--8--6--5--------------------------6--5--------------|

G|--5--7------------------7----------4--5--7---7--------7--7--5--5--|

D|---------------------------5--5-----------------------------------|

A|------------------------------------------------------------------|

E|------------------------------------------------------------------|

 

GUITAR 1:

 

e|--------------------------------------------------------------|

B|--------------------------------------------------------------|

G|------------------------------7--x--x---x--x--x--x---5--5--5--|

D|--3--3--3---5---2--2--2---7---7--x--x---x--x--x--x---5--5--5--|

A|--3--3--3---5---2--2--2---7---5--x--x---x--x--x--x---3--3--3--|

E|--1--1--1---3---0--0--0---5-----------------------------------|

 

GUITAR 2:

 

e|----------------------------------------------------------------|

B|-----6--5---------------8--6--5--------5--6---------6--5--------|

G|--5--------7--5--4---4-----------5--7------------5--------5--5--|

D|----------------------------------------------------------------|

A|----------------------------------------------------------------|

E|----------------------------------------------------------------|

 

 

Outro:

 

GUITAR 1:

 

e|--------------------------|--------------------------|

B|--------------------------|--------------------------|

G|-----------------------2--|-----------------------2--|

D|--3------5------2------2--|--3------5------2------2--|

A|--3------5------2------0--|--3------5------2------0--|

E|--1------3------0---------|--1------3------0---------|

 

GUITAR 2:

 

e|----------------------------------|------------------------7--8--|

B|----------------------------------|------------10--8-------------|

G|-----9--7-----------5--7--5-------|-----9--7------------9--------|

D|--7-------------9--------------5--|--7---------------------------|

A|------------10--------------------|------------------------------|

E|----------------------------------|------------------------------|

 

GUITAR 1:

 

e|-----------------------------------------------------------------------|-----------|

B|-----------------------------------------------------------------------|-----------|

G|--3--x--x--x--x--3---5--5--5---3----3--x--x--x--x--3---5--5--5---3--3--|--3--5--2--|

D|--3--x--x--x--x--3------------------3--x--x--x--x--3-------------------|--3--5--2--|

A|--1--x--x--x--x--1---3--3--3---1----1--x--x--x--x--1---3--3--3---1--1--|--1--3--0--|

E|-----------------------------------------------------------------------|-----------|

 

GUITAR 2:

 

e|-----------------------------------------------------------------------|-----------|

B|-----------------------------------------------------------------------|-----------|

G|--5--7---9---7-------------------10-----10---9---7---------------------|--7--9--6--|

D|-----------------10--10--10--8-------8---------------10--10--10--8--8--|-----------|

A|-----------------------------------------------------------------------|-----------|

E|-----------------------------------------------------------------------|-----------|

©2015 by Fefe - Tron544

Sigueme en:

  • YouTube - White Circle
  • Facebook - White Circle
  • Instagram - White Circle
  • Twitter - White Circle
This site was designed with the
.com
website builder. Create your website today.
Start Now