BORN TO BE

MAHOU SENSOU

TABS ~ By Fefe (Tron544)

 

Intro:

 

GUITAR 1:

e|------------------------------------|

B|------------------------------------|

G|--5--5--5--5--5---------------------|

D|--5--5--5--5--5---1--1--1--1--1--1--|

A|--3--3--3--3--3---1--1--1--1--1--1--|

D|------------------1--1--1--1--1--1--|

 

GUITAR 2:

e|-------------------------------------------------|

B|--11-h-13------8---------------------------------|

G|-----------10-----8-h-10-------------------------|

D|--------------------------8-h-10----------8------|

A|----------------------------------8-h-10-----10--|

D|-------------------------------------------------|

GUITAR 1:

e|------------------------------------|

B|------------------------------------|

G|--3--3--3--3--3------------------3--|

D|--3--3--3--3--3---6--6--6--6--6--3--|

A|--1--1--1--1--1---6--6--6--6--6--1--|

D|------------------6--6--6--6--6-----|

 

GUITAR 2:

e|------------------------------------------|

B|------------------------------------------|

G|-------------------8--------------10------|

D|--8--6---------10-----10------12------12--|

A|--------6--11-------------13--------------|

D|------------------------------------------|

GUITAR 1:

 

  /~~~~~~~~~~~~~~~~~~~~~~( REPEAT x2 / REPITE x2 )~~~~~~~~~~~~~~~~~~~~~~\

e|-----------------------------------------------------------------------|

B|-----------------------------------------------------------------------|

G|--5--5--5--5--5----------------------3--3--3--3--3------------------3--|

D|--5--5--5--5--5---1--1--1--1--1--1---3--3--3--3--3---6--6--6--6--6--3--|

A|--3--3--3--3--3---1--1--1--1--1--1---1--1--1--1--1---6--6--6--6--6--1--|

D|------------------1--1--1--1--1--1-------------------6--6--6--6--6-----|

 

GUITAR 2:

 

  /~~~~~~~~~~~~~~~~~~~~~~~~~~~~~~~~( REPEAT x2 / REPITE x2 )~~~~~~~~~~~~~~~~~~~~~~~~~~~~~~~\

e|------------------------------------------------------------------------------------------|

B|--11-h-13------8--------------------------------------------------------------------------|

G|-----------10-----8-h-10-------------------------------------------8--------------10------|

D|--------------------------8-h-10----------8-------8--6---------10-----10------12------12--|

A|----------------------------------8-h-10-----10---------6--11-------------13--------------|

D|------------------------------------------------------------------------------------------|

 

GUITAR 1:

 

e|-----|

B|-----|

G|--5--|

D|--5--|

A|--3--|

D|-----|

 

GUITAR 2:

 

e|---------------------------------------|

B|---------------------------------------|

G|--10-h-12--10-h-12----12-/-15--12/-15--|

D|---------------------------------------|

A|---------------------------------------|

D|---------------------------------------|

 

 

Verse/Estrofa:

 

GUITAR 2:

 

  /~~~~~~~~~~~~~~~~~~~~~~~~( REPEAT x2 / REPITE x2 )~~~~~~~~~~~~~~~~~~~~~~~~\

e|---------------------------------------------------------------------------|

B|----------6-/-8------------------------------6-/-8-------------------------|

G|--3-/-5----------3-/-5---8---7---6---3-/-5----------3-/-5---6--6--6--6--6--|

D|----------3-/-5----------8---7---6-----------3-/-5----------5--5--5--5--5--|

A|--1-/-3----------1-/-3---6---5---4---1-/-3----------1-/-3---4--4--4--4--4--|

D|---------------------------------------------------------------------------|

 

GUITAR 1:

 

e|---------------------------------------------------|---------------------------------------------------|

B|---------------------------------------------------|---------------------------------------------------|

G|--3-/-5--x--x--5--x--x--5--x--x--5--x--x--5--x--x--|--3-/-5--x--x--5--x--x--5--x--x--5--x--x--5--x--x--|

D|--3-/-5--x--x--5--x--x--5--x--x--5--x--x--5--x--x--|--3-/-5--x--x--5--x--x--5--x--x--5--x--x--5--x--x--|

A|--1-/-3--x--x--3--x--x--3--x--x--3--x--x--3--x--x--|--1-/-3--x--x--3--x--x--3--x--x--3--x--x--3--x--x--|

D|---------------------------------------------------|---------------------------------------------------|

 

GUITAR 2:

 

e|--------|--------|

B|--8-----|--8-----|

G|--10-b--|--10-b--|

D|--------|--------|

A|--------|--------|

D|--------|--------|

 

GUITAR 1:

 

e|---------------------------------------------------|---------------------------------------------|

B|---------------------------------------------------|---------------------------------------------|

G|--3-/-5--x--x--5--x--x--5--x--x--5--x--x--5--x--x--|--3-/-5--x--x--5--x--x--5--x--x--5--x--x--5--|

D|--3-/-5--x--x--5--x--x--5--x--x--5--x--x--5--x--x--|--3-/-5--x--x--5--x--x--5--x--x--5--x--x--5--|

A|--1-/-3--x--x--3--x--x--3--x--x--3--x--x--3--x--x--|--1-/-3--x--x--3--x--x--3--x--x--3--x--x--3--|

D|---------------------------------------------------|---------------------------------------------|

 

GUITAR 2:

 

e|----------------|----------------|

B|--8-------8-----|--8-------8-----|

G|--10-b----10-b--|--10-b----10-b--|

D|----------------|----------------|

A|----------------|----------------|

D|----------------|----------------|

 

 

Pre-Chorus/Pre-Estribillo:

 

GUITAR 1:

 

e|--------------------------------------------------------------------------|

B|--------------------------------------------------------------------------|

G|--------------------------------------------------------------------4--4--|

D|--6--6--6--6--6--6---6--6--6--6--6--6---5--5--5--5--5--5---5--5--5--5--5--|

A|--6--6--6--6--6--6---6--6--6--6--6--6---5--5--5--5--5--5---5--5--5--2--2--|

D|--6--6--6--6--6--6---6--6--6--6--6--6---5--5--5--5--5--5---5--5--5--------|

 

GUITAR 2:

 

e|-----------------------------------------------------------------------------------------------------|

B|-----------------------------------------------------------------------------------------------------|

G|---12--12--12-p-10--10--10--10-p-8--8--8--8--------------10--8--10--8--10-/-12--10-/12---8--10-/-12--|

D|---------------------------------------------10--10--10----------------------------------------------|

A|-----------------------------------------------------------------------------------------------------|

D|-----------------------------------------------------------------------------------------------------|

 

GUITAR 1:

 

e|-----------------------------------------------------------------------------|

B|-----------------------------------------------------------------------------|

G|--5--5--5--5--5--5---5--5--5--5--5--5---6--6--6--6--6--6---6--6--6--6--6--6--|

D|--5--5--5--5--5--5---5--5--5--5--5--5---6--6--6--6--6--6---6--6--6--6--6--6--|

A|--3--3--3--3--3--3---3--3--3--3--3--3---4--4--4--4--4--4---4--4--4--4--4--4--|

D|-----------------------------------------------------------------------------|

 

GUITAR 2:

 

e|------------------------------------------------------------------------------------|

B|-----------------------------------------11--11--8----------------------------------|

G|--12--12--12-p-10--10--10--8--8--8------------------10--8--10--8--10-/-12--10-/-12--|

D|------------------------------------10----------------------------------------------|

A|------------------------------------------------------------------------------------|

D|------------------------------------------------------------------------------------|

 

GUITAR 1:

 

e|--------------------------------------------------------|

B|--------------------------------------------------------|

G|---8--8---8--8--8--8---8--8---7--7---7--7--7--7---7--7--|

D|---8--8---8--8--8--8---8--8---7--7---7--7--7--7---7--7--|

A|---6--6---6--6--6--6---6--6---5--5---5--5--5--5---5--5--|

D|--------------------------------------------------------|

 

GUITAR 2:

 

e|---------------------------------------------------------------------|

B|---------------------------------------------------------------------|

G|--12--12--10--10--8--8--8-----------12--12--10--10--8--8--8----------|

D|---------------------------10--10----------------------------10--10--|

A|---------------------------------------------------------------------|

D|---------------------------------------------------------------------|

 

GUITAR 1:

 

e|--------------------------------------------------------------|

B|--9--9--9--9--9--9--9--9--9---11--11--11--11--11--11--11--11--|

G|--------------------------------------------------------------|

D|--6--6--6--6--6--6--6--6--6---8---8---8---8---8---8---8---8---|

A|--------------------------------------------------------------|

D|--------------------------------------------------------------|

 

GUITAR 2:

 

e|-------------------------------|

B|-------------------------------|

G|--------------8--10--8--8------|

D|------10--12---------------10--|

A|--11---------------------------|

D|-------------------------------|

 

GUITAR 1:

 

e|-------------------------------------------------------------------|

B|--13--13--13--13--13--13--13--13---15--15--15--15--15--15--15--15--|

G|-------------------------------------------------------------------|

D|--10--10--10--10--10--10--10--10---12--12--12--12--12--12--12--12--|

A|-------------------------------------------------------------------|

D|-------------------------------------------------------------------|

 

GUITAR 2:

 

e|----------------------------------------|

B|----------------------------------------|

G|--12--10--10--8--8--10--8-h-10--8-h-10--|

D|----------------------------------------|

A|----------------------------------------|

D|----------------------------------------|

Born to be - Tron544
00:00 / 00:00
DONATE%20BUTTON%20(EN)_edited.png

Chorus/Estribillo:

 

GUITAR 1:

 

e|----------------------|

B|--11--11--11--11--11--|

G|----------------------|

D|--8---8---8---8---8---|

A|----------------------|

D|----------------------|

 

GUITAR 2:

 

e|------------|

B|------------|

G|--11----13--|

D|------------|

A|------------|

D|------------|

 

GUITAR 1:

 

e|-----------------------------------------------------------------------------|

B|-----------------------------------------------------------------------------|

G|--8--8--8--8--8--8---8--8--8--8--8--8----------------------------------------|

D|--8--8--8--8--8--8---8--8--8--8--8--8---9--9--9--9--9--9---9--9--9--9--9--9--|

A|--6--6--6--6--6--6---6--6--6--6--6--6---9--9--9--9--9--9---9--9--9--9--9--9--|

D|----------------------------------------9--9--9--9--9--9---9--9--9--9--9--9--|

 

GUITAR 2:

 

e|-----------------------------------------------------------------------------------------------------|

B|---------------------------------------11------------------------------------------------11----------|

G|--13--11---13--11--11--13--11--13--11------13--11----13--11--13--11--13--11--13--11--11------13--11--|

D|-----------------------------------------------------------------------------------------------------|

A|-----------------------------------------------------------------------------------------------------|

D|-----------------------------------------------------------------------------------------------------|

 

GUITAR 1:

 

e|--------------------------------------------------------------------------------|

B|--------------------------------------------------------------------------------|

G|--11--11--11--11--11--11---11--11--11--11--11--11---6--6--6--6---------7--7--7--|

D|--11--11--11--11--11--11---11--11--11--11--11--11---6--6--6--6---8--8--8--8--8--|

A|--9---9---9---9---9---9----9---9---9---9---9---9----4--4--4--4---8--8--5--5--5--|

D|-----------------------------------------------------------------8--8-----------|

 

GUITAR 2:

 

e|---------------------------------------------------------|

B|--11--11---12----------------------------11------12--11--|

G|---------------13----11--11--11--11--13------13----------|

D|---------------------------------------------------------|

A|---------------------------------------------------------|

D|---------------------------------------------------------|

 

GUITAR 1:

 

e|-----------------------------------------------------------------------------|

B|-----------------------------------------------------------------------------|

G|--8--8--8--8--8--8---8--8--8--8--8--8----------------------------------------|

D|--8--8--8--8--8--8---8--8--8--8--8--8---9--9--9--9--9--9---9--9--9--9--9--9--|

A|--6--6--6--6--6--6---6--6--6--6--6--6---9--9--9--9--9--9---9--9--9--9--9--9--|

D|----------------------------------------9--9--9--9--9--9---9--9--9--9--9--9--|

 

GUITAR 2:

 

e|-----------------------------------------------------------------------------------------------------|

B|---------------------------------------11------------------------------------------------11----------|

G|--13--11---13--11--13--11--13--11--11------13--11----13--11--13--11--13--11--13--11--11------13--11--|

D|-----------------------------------------------------------------------------------------------------|

A|-----------------------------------------------------------------------------------------------------|

D|-----------------------------------------------------------------------------------------------------|

 

GUITAR 1:

 

e|----------------------------------------------------------------------|

B|----------------------------------------------------------------------|

G|--13--13--13--13--13--13---13--13--13--13--13--13---6--6--6--6--6-----|

D|--13--13--13--13--13--13---13--13--13--13--13--13---6--6--6--6--6--8--|

A|--11--11--11--11--11--11---11--11--11--11--11--11---4--4--4--4--4--8--|

D|-------------------------------------------------------------------8--|

 

GUITAR 2:

 

e|-------------------------------------------------------------|

B|--11--11---12------------------------------------------------|

G|---------------13----11--11--11------11--11--10--11--10------|

D|---------------------------------------------------------11--|

A|---------------------------------13--------------------------|

D|-------------------------------------------------------------|

 

 

Outro:

 

GUITAR 1:

 

e|------------------------------------------------------------------|

B|------------------------------------------------------------------|

G|--3-/-5---5--5--5---5--5--5---3-/-5---5--5--5---5--5--5--5--5--5--|

D|--3-/-5---5--5--5---5--5--5---3-/-5---5--5--5---5--5--5--5--5--5--|

A|--1-/-3---3--3--3---3--3--3---1-/-3---3--3--3---3--3--3--3--3--3--|

D|------------------------------------------------------------------|

 

GUITAR 2:

 

e|---------------------------------------------------------------------------------------------------|

B|---------------------------------------------------------------------------------------------------|

G|--12--12---10-/-12--12--12---10-/-12--12--12---12--12---10-/-12--12--12---10-/-12--12--12--12--12--|

D|---------------------------------------------------------------------------------------------------|

A|--10--10---8--/-10--10--10---8--/-10--10--10---10--10---8--/-10--10--10---8--/-10--10--10--10--10--|

D|---------------------------------------------------------------------------------------------------|

©2015 by Fefe - Tron544

Sigueme en:

  • YouTube - White Circle
  • Facebook - White Circle
  • Instagram - White Circle
  • Twitter - White Circle
This site was designed with the
.com
website builder. Create your website today.
Start Now