BON APPéTITS

BLEND S

TABS ~ By Fefe (Tron544)

 

Intro:

GUITAR (Rhythm):

e|----------------------------------------------------------|
B|----------------------------------------------------------|
G|-------------------------------------------------------5--|
D|--(3)-x-x-x-x-x-x-x--x-x-x-x-x-x-x-x--x-x-x-x-x-x-x-x--5--|
A|--(3)-x-x-x-x-x-x-x--x-x-x-x-x-x-x-x--x-x-x-x-x-x-x-x--3--|
E|--(1)-x-x-x-x-x-x-x--x-x-x-x-x-x-x-x--x-x-x-x-x-x-x-x-----|

GUITAR (Lead):

e|----------------------------------------------10-8h10--8----------|
B|--13----13-11-10----10/11--10-----------------------------10------|
G|-----------------12------------9--10----10-10-----------------10--|
D|------------------------------------------------------------------|
A|------------------------------------------------------------------|
E|------------------------------------------------------------------|

GUITAR (Rhythm):

e|-----------------------------------------------------------------|
B|-----------------------------------------------------------------|
G|---------------------------6-6-6-6--7-7-7-7-7-7-7-7--5--5--------|
D|--3-3-3-3-3-3-3-3--7-7-7-7-7-7-7-7--7-7-7-7-7-7-7-7--5--5--7--7--|
A|--3-3-3-3-3-3-3-3--7-7-7-7-4-4-4-4--5-5-5-5-5-5-5-5--3--3--8--8--|
E|--1-1-1-1-1-1-1-1--5-5-5-5---------------------------------5--5--|

GUITAR (Lead):

e|------------------------------------------------------------------|
B|---------------------------------------11------12-------13-13-13--|
G|----------9-10-9-------10/12-9-10---10------10------12------------|
D|--12---12--------12-10--------------------------------------------|
A|------------------------------------------------------------------|
E|------------------------------------------------------------------|

GUITAR (Rhythm):

e|-----------------------------------------------------------|
B|-----------------------------------------------------------|
G|---------------------------7-7-7-7---------#-#-4--5-5-5-5--|
D|--8-8-8-8-8-8-8-8--7-7-7-7-7-7-7-7--#-#-5--#-#-5--5-5-5-5--|
A|--8-8-8-8-8-8-8-8--7-7-7-7-5-5-5-5--#-#-5--#-#-2--3-3-3-3--|
E|--6-6-6-6-6-6-6-6--5-5-5-5----------#-#-3------------------|


Verse/Estrofa:

GUITAR (Vocals):

e|---------------------------------------------------------------------------------------------|
B|---------------------------------------------------------------------------------------------|
G|--10---------------10----10---------------10----14------------10----12/13-12-10-12/13-12-13--|
D|-------10-10-10-12----12------10-10-10-12----12------10-10-12----12--------------------------|
A|---------------------------------------------------------------------------------------------|
E|---------------------------------------------------------------------------------------------|

GUITAR (Harmony):

e|---------------------------------------------|
B|---------------------------------------------|
G|------------------------9/10-9----9/10-9-10--|
D|-------------------------------10------------|
A|---------------------------------------------|
E|---------------------------------------------|

GUITAR (Rhythm):

e|---------------------------------------|
B|---------------------------------------|
G|-----------------------------5----5----|
D|--3--------3--------5--------5----5----|
A|--3--------3--------5--------3----3----|
E|--1--------1--------3------------------|

GUITAR (Vocals):

e|------------------------------------------------------------------------------------------------|
B|----------------------------------------------------10-10-----------------10-10-----------------|
G|--10---------------10----10---------------10----14--------12-10----10-12--------12-10-12-10-10--|
D|-------10-10-10-12----12------10-10-10-12----12-----------------12------------------------------|
A|------------------------------------------------------------------------------------------------|
E|------------------------------------------------------------------------------------------------|

GUITAR (Harmony):

e|----------------------------------------------------------------|
B|--------------------13-13-11-10-11-10-13--13-13-11-10-13-13-13--|
G|----------------------------------------------------------------|
D|--10------------------------------------------------------------|
A|----------------------------------------------------------------|
E|----------------------------------------------------------------|

GUITAR (Rhythm):

e|--------------------------------------------|
B|--------------------------------------------|
G|-------------------------5---------5--------|
D|--3--------4--------5----5----5----5--------|
A|--3--------3--------5----3----5----3--------|
E|--1--------2--------3---------3-------12-\--|

 


Pre-Chorus/Pre-Estribillo:

GUITAR (Vocals):

e|----------------------------------------|
B|--10------10--------10-11-10------------|
G|-----10------10--------------12-10------|
D|-----------------10-----------------12--|
A|----------------------------------------|
E|----------------------------------------|

GUITAR (Harmony):

e|----------10-----------10---------------|
B|--13-10------12-----13----13-11-10------|
G|-----------------12-----------------10--|
D|----------------------------------------|
A|----------------------------------------|
E|----------------------------------------|

GUITAR (Rhythm):

e|--7-/-8----8--#-#-#-#--7-#-#-7-#-#-#-#--#-#---------8-#-#-8-#-#-#-#--|
B|--9-/-10---10-#-#-#-#--6-#-#-6-#-#-#-#--#-#-----11--6-#-#-6-#-#-#-#--|
G|--------------------------------------------/9--10-------------------|
D|---------------------------------------------------------------------|
A|---------------------------------------------------------------------|
E|---------------------------------------------------------------------|

GUITAR (Vocals):

e|----------------------------------------|
B|--10------10--------10-11-10------------|
G|-----10------10--------------12-10--12--|
D|-----------------10---------------------|
A|----------------------------------------|
E|----------------------------------------|

GUITAR (Harmony):

e|----------10-----------10---------------|
B|--13-10------12-----13----13-11-10--11--|
G|-----------------12---------------------|
D|----------------------------------------|
A|----------------------------------------|
E|----------------------------------------|

GUITAR (Rhythm):

e|--7-/-8----8--#-#-#-#--7-#-#-7-#-#-#-#--#-#-------------------------|
B|--9-/-10---10-#-#-#-#--6-#-#-6-#-#-#-#--#-#-17------18----------18--|
G|--------------------------------------------17-h-19-17-15-14-14-15--|
D|--------------------------------------------------------------------|
A|--------------------------------------------------------------------|
E|--------------------------------------------------------------------|

GUITAR (Vocals):

e|-----------------------------------------------------------------------------------|
B|--10------10--------10-11-10-----------------10-----------10----------------11/13--|
G|-----10------10--------------12-10-----10-12-----12--10--------12--10-12-10--------|
D|-----------------10-----------------12---------------------------------------------|
A|-----------------------------------------------------------------------------------|
E|-----------------------------------------------------------------------------------|

GUITAR (Harmony):

e|-----------------------10-------------------------------------------------------|
B|--13-10---13-10-----13----13-11-10-----10-11-13--11--10---13---11--10-11-10-----|
G|-----------------12-----------------10--------------------------------------14--|
D|--------------------------------------------------------------------------------|
A|--------------------------------------------------------------------------------|
E|--------------------------------------------------------------------------------|

GUITAR (Rhythm):

e|-----------------------------------------------------------------------------------|
B|----------------------------------------------------------------------10-11-12-13--|
G|---------------------------7-7-7-7-------------------------------------------------|
D|--8-8-8-8-8-8-8-8--7-7-7-7-7-7-7-7--5--7--8---5---7--8----10-10-10-10-7--8--9--10--|
A|--8-8-8-8-8-8-8-8--7-7-7-7-5-5-5-5--5--7--8---5---7--8----10-10-10-10--------------|
E|--6-6-6-6-6-6-6-6--5-5-5-5----------3--5--6---3---5--6----8--8--8--8---------------|

Bon Appetit S - Tron544
00:00 / 00:00
DONATE%20BUTTON%20(EN)_edited.png

Chorus/Estribillo:

GUITAR (Vocals):

e|--------------|-------------------------------------------------------10-8h10--8----------|
B|--10----------|--11/13----13-11-10-----10/11--10----------------------------------10------|
G|------12--10--|--------------------12-------------9--10---10-10-10-10-----------------10--|
D|--------------|---------------------------------------------------------------------------|
A|--------------|---------------------------------------------------------------------------|
E|--------------|---------------------------------------------------------------------------|

GUITAR (Harmony):

e|--------------|--12/13--------------------------------|
B|--13--11--10--|---------------------------------------|
G|--------------|---------------------------------------|
D|--------------|---------------------------------------|
A|--------------|---------------------------------------|
E|--------------|---------------------------------------|

GUITAR (Rhythm):

e|----------------------------------------------------------------------|
B|----------------------------------------------------------------------|
G|---------------------------6-6-6-6--7-7-7-7-7-7-7-7--5-5-5-5----------|
D|--3-3-3-3-3-3-3-3--7-7-7-7-7-7-7-7--7-7-7-7-7-7-7-7--5-5-5-5-7-7-7-7--|
A|--3-3-3-3-3-3-3-3--7-7-7-7-4-4-4-4--5-5-5-5-5-5-5-5--3-3-3-3-8-8-8-8--|
E|--1-1-1-1-1-1-1-1--5-5-5-5-----------------------------------5-5-5-5--|

GUITAR (Vocals):

e|-------------------------------------------------------------------8/10-----|
B|-----------10--------------------10--------------------------13-10------13--|
G|--10-10-12----10----10-----10-12----10----10--12-12---12-12-----------------|
D|-----------------12-----12-------------12-----------------------------------|
A|----------------------------------------------------------------------------|
E|----------------------------------------------------------------------------|

GUITAR (Harmony):

e|---------------------------------------------------|
B|-----------10-11-13-10----10--11-11---12-12--------|
G|--------10-------------10--------------------------|
D|---------------------------------------------------|
A|---------------------------------------------------|
E|---------------------------------------------------|

GUITAR (Rhythm):

e|----------------------------------------------------------------|
B|----------------------------------------------------------------|
G|---------------------------7-7-7-7---------#-#-4--5-5-5-5--5-5--|
D|--8-8-8-8-8-8-8-8--7-7-7-7-7-7-7-7--#-#-5--#-#-5--5-5-5-5--5-5--|
A|--8-8-8-8-8-8-8-8--7-7-7-7-5-5-5-5--#-#-5--#-#-2--3-3-3-3--3-3--|
E|--6-6-6-6-6-6-6-6--5-5-5-5----------#-#-3-----------------------|

GUITAR (Vocals):

e|------------------------------------------------------------10-8h10--8----------|
B|--11/13---13-13-13-11-10-----10/11--10----------------------------------10------|
G|-------------------------12-------------9--10---10-10-10-10-----------------10--|
D|--------------------------------------------------------------------------------|
A|--------------------------------------------------------------------------------|
E|--------------------------------------------------------------------------------|

GUITAR (Harmony):

e|--12/13--------------------------------|
B|---------------------------------------|
G|---------------------------------------|
D|---------------------------------------|
A|---------------------------------------|
E|---------------------------------------|

GUITAR (Rhythm):

e|-----------------------------------------------------------------|
B|-----------------------------------------------------------------|
G|---------------------------6-6-6-6--7-7-7-7-7-7-7-7--5--5--------|
D|--3-3-3-3-3-3-3-3--7-7-7-7-7-7-7-7--7-7-7-7-7-7-7-7--5--5--7--7--|
A|--3-3-3-3-3-3-3-3--7-7-7-7-4-4-4-4--5-5-5-5-5-5-5-5--3--3--8--8--|
E|--1-1-1-1-1-1-1-1--5-5-5-5---------------------------------5--5--|

GUITAR (Vocals):

e|----------------------------------------------------------------------------------------|
B|-----------10--------------------13------------------13----13-13--13-13-11-10-11-11/13--|
G|--10-10-12----10----10-----10-12----10----10----9-10------------------------------------|
D|-----------------12-----12-------------12----12-----------------------------------------|
A|----------------------------------------------------------------------------------------|
E|----------------------------------------------------------------------------------------|

GUITAR (Harmony):

e|------------------------------------------------------------------------|
B|-----------10-11-13-10----10-10-------10----10-10--10-10----------8/10--|
G|--------10-------------10--------------------------------12-10-12-------|
D|--------------------------------10-12-----------------------------------|
A|------------------------------------------------------------------------|
E|------------------------------------------------------------------------|

GUITAR (Rhythm):

e|-----------------------------------------------------------------------------|
B|-----------------------------------------------------------------------------|
G|-------------------------7-7-7-7-7-7-----------------------------------------|
D|--8--8-8-8-8-8-8-8--7--7-7-7-7-7-7-7--5--7--8---10--10-10-10-10-10-10-10-10--|
A|--8--8-8-8-8-8-8-8--7--7-5-5-5-5-5-5--5--7--8---10--10-10-10-10-10-10-10-10--|
E|--6--6-6-6-6-6-6-6--5--5--------------3--5--6---8---8--8--8--8--8--8--8--8---|

GUITAR (Vocals):

e|-------------------------------------------------------------------|
B|---------------------------10----------13-13-13----------13-13-13--|
G|--10------10------10-10-12----------10----------------10-----------|
D|-------12------12-------------10-12-------------10-12--------------|
A|-------------------------------------------------------------------|
E|-------------------------------------------------------------------|

GUITAR (Harmony):

e|--------------------13-13-13----13-13-13--|
B|------------------------------------------|
G|------------------------------------------|
D|------------------------------------------|
A|------------------------------------------|
E|------------------------------------------|

GUITAR (Rhythm):

e|------------------------------------------------------|
B|------------------------------------------------------|
G|----------5-5-5-5----------7-7-7-7------5--------7----|
D|--5-5-5-5-5-5-5-5--7-7-7-7-7-7-7-7--5-5-5----7-7-7----|
A|--5-5-5-5-3-3-3-3--7-7-7-7-5-5-5-5--5-5-3----7-7-5----|
E|--3-3-3-3----------5-5-5-5----------3-3------5-5------|

GUITAR (Vocals):

e|-----------------------------------------------------------------------------------------------------|
B|---------------------------10------10-13-----------------------------10-13---------------------------|
G|--10------10------10-10-12------10--------10--10--9--10/12-10-----10--------10--10-10/12---10-10-10--|
D|-------12------12------------------------------------------------------------------------------------|
A|-----------------------------------------------------------------------------------------------------|
E|-----------------------------------------------------------------------------------------------------|

GUITAR (Rhythm):

e|-------------------------------------------------------------------------------|
B|-------------------------------------------------------------------------------|
G|--4-4-4-4-5-5-5-5----------7-7-7-7-------5--5-----------------5--5-------------|
D|--5-5-5-5-5-5-5-5--7-7-7-7-7-7-7-7--5----5--5--3----4----5----5--5---3-3-3--/--|
A|--2-2-2-2-3-3-3-3--7-7-7-7-5-5-5-5--5----3--3--3----3----5----3--3---3-3-3--/--|
E|-------------------5-5-5-5----------3----------1----2----3-----------1-1-1--/--|

©2015 by Fefe - Tron544

Sigueme en:

  • YouTube - White Circle
  • Facebook - White Circle
  • Instagram - White Circle
  • Twitter - White Circle
This site was designed with the
.com
website builder. Create your website today.
Start Now