BOKU NO SENSOU

ATTACK ON TITAN

TABS ~ By Fefe (Tron544)

 

Intro:

e|---------------|-----------------------------------------|
B|--14-12--------|-----------------------------------------|
G|--------14-13--|---------------------13-13-13-13---------|
D|---------------|--11----14-14--11-11--------------14-13--|
A|---------------|-----------------------------------------|
E|---------------|-----------------------------------------|

e|------------------------------------|

B|------------------------------------|

G|---------------------13-13-13-13----|

D|--11----14-14--11-11----------------|

A|------------------------------------|

E|------------------------------------|

e|--------------------------------------------------------------------------|
B|--------------------------------------------14------14-----14-14-14-14----|
G|---------------------13-13-13-13------------------------------------------|
D|--11----14-14--11-11--------------14-13-11------11------11----------------|
A|--------------------------------------------------------------------------|
E|--------------------------------------------------------------------------|

 


Riff:

e|---------|--------14----16-14-17-16-14-16-12----12-16-11-16--|
B|--14-16--|--17-16----17----------------------16--------------|
G|---------|---------------------------------------------------|
D|---------|---------------------------------------------------|
A|---------|---------------------------------------------------|
E|---------|---------------------------------------------------|

e|--------------12-16-11-16----------------12-16--|
B|--14----14-16-------------14----14----14--------|
G|-----13----------------------13----13-----------|
D|------------------------------------------------|
A|------------------------------------------------|
E|------------------------------------------------|


Verse/Estrofa:

e|-----|-----------------------------------------------------|
B|-----|-----------------------------------------------------|
G|-----|-----------------------------------------4--4/6------|
D|-----|-----4------------------------4----------------------|
A|-----|--7----6--7--4--6--4-------7----6--7--4--------------|
E|--4--|----------------------4--4------------------------4--|

e|-----------------------------------------------|
B|-----------------------------------------------|
G|--------------------------6-6-6-6--6-----------|
D|-----4-----------------------------------------|
A|--7----6--7--4--6--4------4-4-4-4--4-----------|
E|----------------------4------------------------|

Boku no Sensou - Tron544
00:00 / 00:00
DONATE%20BUTTON%20(EN)_edited.png

Chorus/Estribillo:


e|---------------|--------------------------------------------------------------------------|
B|--15-13--------|--------------------------------------------------------------------------|
G|--------15-14--|---------------------14-14-14-14---------------------------14-14-14-14----|
D|---------------|--12----15-15--12-12--------------15-14-12----15-15--12-12----------------|
A|---------------|--------------------------------------------------------------------------|

E|---------------|--------------------------------------------------------------------------|

e|---------------------------------------------------------------------------------|
B|--------------------------------------------15------15-----15-15-15-15-13--------|
G|---------------------14-14-14-14------------------------------------------15-14--|
D|--12----15-15--12-12--------------15-14-12------12------12-----------------------|
A|---------------------------------------------------------------------------------|
E|---------------------------------------------------------------------------------|

e|--------------------------------------------------------------------------|
B|--------------------------------------------------------------------------|
G|---------------------14-14-14-14---------------------------14-14-14-14----|
D|--12----15-15--12-12--------------15-14-12----15-15--12-12----------------|
A|--------------------------------------------------------------------------|
E|--------------------------------------------------------------------------|

e|--------------------------------------------------------------------------|
B|--------------------------------------------15------15-----15-15-15-15----|
G|---------------------14-14-14-14------------------------------------------|
D|--12----15-15--12-12--------------15-14-12------12------12----------------|
A|--------------------------------------------------------------------------|
E|--------------------------------------------------------------------------|

e|---------------------------10-----10----10-10-10-10----|
B|-------------------------------------------------------|
G|----7----------9--------7------7------7----------------|
D|-------7----------7------------------------------------|
A|----------8----------7---------------------------------|
E|-------------------------------------------------------|


Outro:

e|--------------------------------------------------------------------------------------------|
B|--------------14------------------14------------------14--------14------14------14------14--|
G|--------------------------------------------------------------------------------------------|
D|--------------11------------11----11------------11----11----11------11------11------11------|
A|--------------------------------------------------------------------------------------------|
E|----------------------------9-------------------9-------------------------------------------|