BLOOD CIRCULATOR

NARUTO SHIPPUDEN

TABS ~ By Fefe (Tron544)

 

Intro:

 

GUITAR (Lead):

 

e|---------------------------------------------|
B|---------------------------------------------|
G|------------5--------------------------------|
D|--7--7--7---5---5---3---3--3--3--3--3--3--3--|
A|--7--7--7---3---5---3---3--3--3--3--3--3--3--|
E|--5--5--5-------3---1---1--1--1--1--1--1--1--|

 

e|---------------------------------------------|
B|---------------------------------------------|
G|---------------------------------------------|
D|--7--7--7---5---5---3---3--3--3--3--3--3--3--|
A|--7--7--7---5---5---3---3--3--3--3--3--3--3--|
E|--5--5--5---3---3---1---1--1--1--1--1--1--1--|

 

GUITAR (Rhythm):

 

e|-----------------------------------------------------------------------------------------|
B|-----------------------------------------------------------------------------------------|
G|------------5-------------------------------------------5--------------------------------|
D|--7--7--7---5---5---3---3--3--3--3--3--3--3---7--7--7---5---5---3---3--3--3--3--3--3--3--|
A|--7--7--7---3---5---3---3--3--3--3--3--3--3---7--7--7---3---5---3---3--3--3--3--3--3--3--|
E|--5--5--5-------3---1---1--1--1--1--1--1--1---5--5--5-------3---1---1--1--1--1--1--1--1--|

 

GUITAR (Vocals):

 

e|--------------8------8--------------------------------------------------|
B|--10--10--10-----10------10--8--10---10--10--10--8----------------------|
G|----------------------------------------------------9--7--9-p-7-\-5-----|
D|---------------------------------------------------------------------7--|
A|------------------------------------------------------------------------|
E|------------------------------------------------------------------------|

 

GUITAR (Lead):

 

e|----------------------------------------------------------------|
B|-----------8-----8----------------------------------------------|
G|--9--9--9-----9-----9--7--9---9--9--9--7------------------------|
D|------------------------------------------10--7--10-p-7---------|
A|---------------------------------------------------------10--7--|
E|----------------------------------------------------------------|

 

BASS:

 

G|---------------------------------------------------------------------------------------|
D|---------------------------------------------------------------------------------------|
A|-----------3------------------------------------------3--------------------------------|
E|--5--5--5------3---1---1--1--1--1--1--1--1---5--5--5------3---1---1--1--1--1--1--1--1--|

 


Verse/Estrofa:

 

GUITAR (Rhythm):

 

e|--#----#----#----#--#----#----#----#----#--#--|
B|--#----#----#----#--#----#----#----#----#--#--|
G|--#----#----#----#--#----#----#----#----#--#--|
D|--#----#----#----#--#----#----#----#----#--#--|
A|--#----#----#----#--#----#----#----#----#--#--|
E|--#----#----#----#--#----#----#----#----#--#--|

 

GUITAR (Vocals):

 

e|------------------------------------------------|
B|------------------------------------------------|
G|--9----9-------9----9----------9---7------------|
D|------------7------------7--7----------7--5--7--|
A|------------------------------------------------|
E|------------------------------------------------|

 

BASS:

 

G|---------------------------------------------------------------------------------------|
D|---------------------------------------------------------------------------------------|
A|-----------3------------------------------------------3--------------------------------|
E|--5--5--5------3---1---1--1--1--1--1--1--1---5--5--5------3---1---1--1--1--1--1--1--1--|

 

GUITAR (Rhythm):

 

e|--#----#----#----#--#----#----#----#----#--#--|
B|--#----#----#----#--#----#----#----#----#--#--|
G|--#----#----#----#--#----#----#----#----#--#--|
D|--#----#----#----#--#----#----#----#----#--#--|
A|--#----#----#----#--#----#----#----#----#--#--|
E|--#----#----#----#--#----#----#----#----#--#--|

 

GUITAR (Vocals):

 

e|-----------------------------------------------|
B|-----------------------------------------------|
G|--9----9----9----9----9--7--7---7--7-----------|
D|--------------------------------------7--5--7--|
A|-----------------------------------------------|
E|-----------------------------------------------|

 

BASS:

 

G|---------------------------------------------------------------------------------------|
D|---------------------------------------------------------------------------------------|
A|-----------3------------------------------------------3--------------------------------|
E|--5--5--5------3---1---1--1--1--1--1--1--1---5--5--5------3---1---1--1--1--1--1--1--1--|

 


Pre-Chorus/Estribillo:

 

GUITAR (Rhythm):

 

e|-----------------------------------------------------------------------------|
B|-----------------------------------------------------------------------------|
G|-----------------------------------------------------------------------------|
D|--5--5--5--5--5--5---5--5--5--5--5--5---3--3--3--3--3--3---3--3--3--3--3--3--|
A|--5--5--5--5--5--5---5--5--5--5--5--5---3--3--3--3--3--3---3--3--3--3--3--3--|
E|--3--3--3--3--3--3---3--3--3--3--3--3---1--1--1--1--1--1---1--1--1--1--1--1--|

 

GUITAR (Vocals):

e|--------------------------------------------|
B|--------------------------------------------|
G|--7--7--7--7--5--5--5--7-/-9---7--5--5------|
D|-----------------------------------------5--|
A|--------------------------------------------|
E|--------------------------------------------|

 

GUITAR (Lead):

 

e|----------------------------------------------------------------------------------------------------------|
B|----------------------------------------------------------------------------------------------------------|
G|----------------------------------------------------------------------------------------------------------|
D|--5--5--5--5--5--5--5--5---5--5--5--7--7--10--10--10---5--5--5--5--5--5--5--5---5--5--5--7--7--10--10--10-|
A|----------------------------------------------------------------------------------------------------------|
E|--3--3--3--3--3--3--3--3---3--3--3--5--5--8---8---8----3--3--3--3--3--3--3--3---3--3--3--5--5--8---8---8--|

 

BASS:

 

G|-----------------------------------------------------------------------------------------------------|
D|-----------------------------------------------------------------------------------------------------|
A|-----------------------------------------------------------------------------------------0--3--5--3--|
E|--3--3--3--3--3--3--3--3---3--3--3--3--3--3--3--3---1--1--1--1--1--1--1--1---1--1--1--1--------------|

 

GUITAR (Rhythm):

 

e|-----------------------------------------------------------------------------|
B|-----------------------------------------------------------------------------|
G|-----------------------------------------------------------------------------|
D|--5--5--5--5--5--5---5--5--5--5--5--5---6--6--6--6--6--6---8--8--8--8--8--8--|
A|--5--5--5--5--5--5---5--5--5--5--5--5---6--6--6--6--6--6---8--8--8--8--8--8--|
E|--3--3--3--3--3--3---3--3--3--3--3--3---4--4--4--4--4--4---6--6--6--6--6--6--|

 

GUITAR (Vocals):

 

e|------------------------------------------------|
B|------------------------------------------------|
G|--7--7--7--7--5--5--5--7-/-8---7--5--7-/-8---7--|
D|------------------------------------------------|
A|------------------------------------------------|
E|------------------------------------------------|

 

GUITAR (Lead):

 

e|----------------------------------------------------------------------------------------------------------|
B|----------------------------------------------------------------------------------------------------------|
G|---------------------------------------------------8--8--8--8--8--8--8--8--10--10--10--10--10--10--10--10-|
D|-5--5--5--5--5--5--5--5--5--5--5--7--7--10--10--10--------------------------------------------------------|
A|---------------------------------------------------6--6--6--6--6--6--6--6--8---8---8---8---8---8---8---8--|
E|-3--3--3--3--3--3--3--3--3--3--3--5--5--8---8---8---------------------------------------------------------|

 

BASS:

 

G|------------------------------------------------------------------------------------------------------|
D|------------------------------------------------------------------------------------------------------|
A|------------------------------------------------------------------------------------------------------|
E|--3--3--3--3--3--3--3--3---3--3--3--3--3--3--3--3---4--4--4--4--4--4--4--4---6--6--6--6--6--6--6--6---|

 


First Chorus/Primer Estribillo:

 

GUITAR (Rhythm):

 

e|-----------------------------------------------------------------------------|
B|-----------------------------------------------------------------------------|
G|--5--5--5--5--5--5---5--5--5--5--5--5----------------------------------------|
D|--5--5--5--5--5--5---5--5--5--5--5--5---3--3--3--3--3--3---3--3--3--3--3--3--|
A|--3--3--3--3--3--3---3--3--3--3--3--3---3--3--3--3--3--3---3--3--3--3--3--3--|
E|----------------------------------------1--1--1--1--1--1---1--1--1--1--1--1--|

 

GUITAR (Vocals):

 

e|-----------------------------------------------------------------------------|
B|--8-----------------------------------8--------------------------------------|
G|-----9--7--9--9--9--7--9--7--------------9--7--9--9--9--7--9--7--------------|
D|-----------------------------10----------------------------------10----------|
A|---------------------------------10----------------------------------10--10--|
E|-----------------------------------------------------------------------------|

 

GUITAR (Lead):

 

  /~~~~~~~~~~~~~~~~~~~~( REPEAT x2 / REPITE x2 )~~~~~~~~~~~~~~~~~~~~\
e|-------------------------------------------------------------------|
B|--13--13--13--13--13--13--13--13---13--13--13--13--13--13--13--13--|
G|--12--12--12--12--12--12--12--12---12--12--12--12--12--12--12--12--|
D|--10--10--10--10--10--10--10--10---10--10--10--10--10--10--10--10--|
A|-------------------------------------------------------------------|
E|-------------------------------------------------------------------|

 

BASS:

 

G|-----------------------------------------------------------------------------------------------------|
D|-----------------------------------------------------------------------------------------------------|
A|--3--3--3--3--3--3--3--3---3--3--3--3--3--3--3--3----------------------------------------------------|
E|----------------------------------------------------1--1--1--1--1--1--1--1---1--1--1--1--1--1--1--1--|

 

GUITAR (Rhythm):

 

e|-----------------------------------------------------------------------|
B|--8-----------------------------------8--------------------------------|
G|-----9--7--9--9--9--7--9--7--------------9--7--9--9--9--7-h-9---7------|
D|-----------------------------10------------------------------------10--|
A|---------------------------------10------------------------------------|
E|-----------------------------------------------------------------------|

 

GUITAR (Vocals):

 

e|-----------------------------------------------------------------------------|
B|-----------------------------------------------------------------------------|
G|----------------------------------------7--7--7--7--7--7---------------------|
D|--2--2--2--2--2--2---2--2--2--2--2--2---7--7--7--7--7--7---6--6--6--6--6--6--|
A|--2--2--2--2--2--2---2--2--2--2--2--2---5--5--5--5--5--5---6--6--6--6--6--6--|
E|--0--0--0--0--0--0---0--0--0--0--0--0----------------------4--4--4--4--4--4--|

 

GUITAR (Lead):

 

  /~~~~~~~~~~~~~~~~~~~~( REPEAT x2 / REPITE x2 )~~~~~~~~~~~~~~~~~~~~\
e|-------------------------------------------------------------------|
B|--13--13--13--13--13--13--13--13---13--13--13--13--13--13--13--13--|
G|--12--12--12--12--12--12--12--12---12--12--12--12--12--12--12--12--|
D|--10--10--10--10--10--10--10--10---10--10--10--10--10--10--10--10--|
A|-------------------------------------------------------------------|
E|-------------------------------------------------------------------|

 

BASS:

 

G|-----------------------------------------------------------------------------------------------------|
D|-----------------------------------------------------------------------------------------------------|
A|----------------------------------------------------5--5--5--5--5--5--5--5---------------------------|
E|--0--0--0--0--0--0--0--0---0--0--0--0--0--0--0--0----------------------------4--4--4--4--4--4--4--4--|

Blood Circulator - Tron544 & Omar1UP
00:00 / 00:00
DONATE%20BUTTON%20(EN)_edited.png

Interlude/Intermedio:

 

GUITAR (Lead):

 

e|-------------------------------------------------------------------|
B|-------------------------------------------------------------------|
G|------------5-------------------------------------------5----------|
D|--7--7--7---5---5---3---3--3--3--3--3--3--3---7--7--7---5---5---3--|
A|--7--7--7---3---5---3---3--3--3--3--3--3--3---7--7--7---3---5---3--|
E|--5--5--5-------3---1---1--1--1--1--1--1--1---5--5--5-------3---1--|

 

GUITAR (Vocals):

 

e|--------------8------8--------------------------------------------------|
B|--10--10--10-----10------10--8--10---10--10--10--8----------------------|
G|----------------------------------------------------9--7--9-p-7-\-5-----|
D|---------------------------------------------------------------------7--|
A|------------------------------------------------------------------------|
E|------------------------------------------------------------------------|

 

GUITAR (Lead):

 

e|----------------------------------------------------------------|
B|-----------8-----8----------------------------------------------|
G|--9--9--9-----9-----9--7--9---9--9--9--7------------------------|
D|------------------------------------------10--7--10-p-7---------|
A|---------------------------------------------------------10--7--|
E|----------------------------------------------------------------|

 

BASS:

 

G|---------------------------------------------------------------------|
D|---------------------------------------------------------------------|
A|-----------3------------------------------------------3--------------|
E|--5--5--5------3---1---1--1--1--1--1--1--1---5--5--5------3---1---1--|

 


Bridge/Puente:

 

GUITAR (Rhythm):

 

e|---------------------------------------------------------------------------|
B|---------------------------------------------------------------------------|
G|--5---5--5--5---5--5--5---5--5--5--5---------------------------------------|
D|--5---5--5--5---5--5--5---5--5--5--5---5---5--5--5---5--5--5---5--5--5--5--|
A|--3---3--3--3---3--3--3---3--3--3--3---5---5--5--5---5--5--5---5--5--5--5--|
E|---------------------------------------3---3--3--3---3--3--3---3--3--3--3--|

 

GUITAR (Vocals):

 

e|---------------------------------------------------------------|
B|---------------------------------------------------------------|
G|--5------5------5--5-/-7--5--5---5------5------5--5-/-7--5--5--|
D|------5------5-----------------------5------5------------------|
A|---------------------------------------------------------------|
E|---------------------------------------------------------------|

 

GUITAR (Harmony):

 

e|-------------------------------------------------------------|
B|-------------------------------------------------------------|
G|--9-------9-------9--10--9--9---9-------9-------9--10--9--9--|
D|------10------10--------------------10------10---------------|
A|-------------------------------------------------------------|
E|-------------------------------------------------------------|

 

GUITAR (Lead):

 

e|---------------------------------------------------------------------|
B|---------------------------------------------------------------------|
G|--5---5--5---5--5--5---5--5--5--5---7---7--7---7--7--7---7--7--7--7--|
D|---------------------------------------------------------------------|
A|--3---3--3---3--3--3---3--3--3--3---5---5--5---5--5--5---5--5--5--5--|
E|---------------------------------------------------------------------|

 

BASS:

 

G|-----------------------------------------------------------------------------------------------------|
D|-----------------------------------------------------------------------------------------------------|
A|--3--3--3--3--3--3--3--3---3--3--3--3--3--3--3--3----------------------------------------------------|
E|----------------------------------------------------3--3--3--3--3--3--3--3---3--3--3--3--3--3--3--3--|

 

GUITAR (Rhythm):

 

e|--------------------------------------------------------------|
B|--------------------------------------------------------------|
G|--------------------------------------------------------------|
D|--6---6--6--6---6--6--6---6--6--6--6---8---8--8--8---8--8--8--|
A|--6---6--6--6---6--6--6---6--6--6--6---8---8--8--8---8--8--8--|
E|--4---4--4--4---4--4--4---4--4--4--4---6---6--6--6---6--6--6--|

 

GUITAR (Vocals):

 

e|------------------------------------------------------------|
B|------------------------------------------------------------|
G|--5------5------5--5-/-7--5--5---12--7--7--5--5---7--5-h-7--|
D|------5------5----------------------------------------------|
A|------------------------------------------------------------|
E|------------------------------------------------------------|

 

GUITAR (Lead):

 

e|-------------------------------------------------------------|
B|-------------------------------------------------------------|
G|--8---8--8---8--8--8---8--8--8--8---10---10--10---10--10-----|
D|----------------------------------------------------------8--|
A|--6---6--6---6--6--6---6--6--6--6---8----8---8----8---8---8--|
E|----------------------------------------------------------6--|

 

BASS:

 

G|--------------------------------------------------------------------------------|
D|--------------------------------------------------------------------------------|
A|--------------------------------------------------------------------------------|
E|--4--4--4--4--4--4--4--4---4--4--4--4--4--4--4--4---6--6--6--6--6--6--6--6---6--|

 


Second Chorus/Segundo Estribillo:

 

GUITAR (Rhythm):

 

e|-----------------------------------------------------------------------------|
B|-----------------------------------------------------------------------------|
G|--5--5--5--5--5--5---5--5--5--5--5--5----------------------------------------|
D|--5--5--5--5--5--5---5--5--5--5--5--5---3--3--3--3--3--3---3--3--3--3--3--3--|
A|--3--3--3--3--3--3---3--3--3--3--3--3---3--3--3--3--3--3---3--3--3--3--3--3--|
E|----------------------------------------1--1--1--1--1--1---1--1--1--1--1--1--|

 

GUITAR (Vocals):

 

e|-----------------------------------------------------------------------------|
B|--8-----------------------------------8--------------------------------------|
G|-----9--7--9--9--9--7--9--7--------------9--7--9--9--9--7--9--7--------------|
D|-----------------------------10----------------------------------10----------|
A|---------------------------------10----------------------------------10--10--|
E|-----------------------------------------------------------------------------|

 

BASS:

 

G|-----------------------------------------------------------------------------------------------------|
D|-----------------------------------------------------------------------------------------------------|
A|--3--3--3--3--3--3--3--3---3--3--3--3--3--3--3--3----------------------------------------------------|
E|----------------------------------------------------1--1--1--1--1--1--1--1---1--1--1--1--1--1--1--1--|

 

GUITAR (Rhythm):

 

e|-----------------------------------------------------------------------|
B|--8-----------------------------------8--------------------------------|
G|-----9--7--9--9--9--7--9--7--------------9--7--9--9--9--7-h-9---7------|
D|-----------------------------10------------------------------------10--|
A|---------------------------------10------------------------------------|
E|-----------------------------------------------------------------------|

 

GUITAR (Vocals):

 

e|-----------------------------------------------------------------------------|
B|-----------------------------------------------------------------------------|
G|----------------------------------------7--7--7--7--7--7---------------------|
D|--2--2--2--2--2--2---2--2--2--2--2--2---7--7--7--7--7--7---6--6--6--6--6--6--|
A|--2--2--2--2--2--2---2--2--2--2--2--2---5--5--5--5--5--5---6--6--6--6--6--6--|
E|--0--0--0--0--0--0---0--0--0--0--0--0----------------------4--4--4--4--4--4--|

 

BASS:

G|-----------------------------------------------------------------------------------------------------|
D|-----------------------------------------------------------------------------------------------------|
A|----------------------------------------------------5--5--5--5--5--5--5--5---------------------------|
E|--0--0--0--0--0--0--0--0---0--0--0--0--0--0--0--0----------------------------4--4--4--4--4--4--4--4--|

 

GUITAR (Rhythm):

 

e|-----------------------------------------------------------------------------|
B|-----------------------------------------------------------------------------|
G|--5--5--5--5--5--5---5--5--5--5--5--5----------------------------------------|
D|--5--5--5--5--5--5---5--5--5--5--5--5---3--3--3--3--3--3---3--3--3--3--3--3--|
A|--3--3--3--3--3--3---3--3--3--3--3--3---3--3--3--3--3--3---3--3--3--3--3--3--|
E|----------------------------------------1--1--1--1--1--1---1--1--1--1--1--1--|

 

GUITAR (Vocals):

 

e|-----------------------------------------------------------------------------|
B|--8-----------------------------------8--------------------------------------|
G|-----9--7--9--9--9--7--9--7--------------9--7--9--9--9--7--9--7--------------|
D|-----------------------------10----------------------------------10----------|
A|---------------------------------10----------------------------------10--10--|
E|-----------------------------------------------------------------------------|

 

GUITAR (Harmony):

 

e|-----------------------------------------------------------------------------------------------|
B|--13-------------------------------------------13----------------------------------------------|
G|------14--12--14--14--14--12--14--12---------------14--12--14--14--14--12--14--12--------------|
D|--------------------------------------14--10---------------------------------------14--10--10--|
A|-----------------------------------------------------------------------------------------------|
E|-----------------------------------------------------------------------------------------------|

 

BASS:

 

G|-----------------------------------------------------------------------------------------------------|
D|-----------------------------------------------------------------------------------------------------|
A|--3--3--3--3--3--3--3--3---3--3--3--3--3--3--3--3----------------------------------------------------|
E|----------------------------------------------------1--1--1--1--1--1--1--1---1--1--1--1--1--1--1--1--|

 

GUITAR (Rhythm):

 

e|-----------------------------------------------------------------------|
B|--8-----------------------------------8--------------------------------|
G|-----9--7--9--9--9--7--9--7--------------9--7--9--9--9--7-h-9---7------|
D|-----------------------------10------------------------------------10--|
A|---------------------------------10------------------------------------|
E|-----------------------------------------------------------------------|

 

GUITAR (Vocals):

 

e|-----------------------------------------------------------------------------|
B|-----------------------------------------------------------------------------|
G|----------------------------------------7--7--7--7--7--7---------------------|
D|--2--2--2--2--2--2---2--2--2--2--2--2---7--7--7--7--7--7---6--6--6--6--6--6--|
A|--2--2--2--2--2--2---2--2--2--2--2--2---5--5--5--5--5--5---6--6--6--6--6--6--|
E|--0--0--0--0--0--0---0--0--0--0--0--0----------------------4--4--4--4--4--4--|

 

GUITAR (Harmony):

 

e|-----------------------------------------------------------------------12-----------|
B|--13-------------------------------------------13----------------------15-b--r--13--|
G|------14--12--14--14--14--12--14--12---------------14--12--14--14--14---------------|
D|--------------------------------------14--10----------------------------------------|
A|------------------------------------------------------------------------------------|
E|------------------------------------------------------------------------------------|

 

BASS:

 

G|-----------------------------------------------------------------------------------------------------|
D|-----------------------------------------------------------------------------------------------------|
A|----------------------------------------------------5--5--5--5--5--5--5--5---------------------------|
E|--0--0--0--0--0--0--0--0---0--0--0--0--0--0--0--0----------------------------4--4--4--4--4--4--4--4--|

 


Outro:

 

GUITAR (Rhythm):

 

e|-----------------------------------------------------------------------------------------|
B|-----------------------------------------------------------------------------------------|
G|------------5-------------------------------------------5--------------------------------|
D|--7--7--7---5---5---3---3--3--3--3--3--3--3---7--7--7---5---5---3---3--3--3--3--3--3--3--|
A|--7--7--7---3---5---3---3--3--3--3--3--3--3---7--7--7---3---5---3---3--3--3--3--3--3--3--|
E|--5--5--5-------3---1---1--1--1--1--1--1--1---5--5--5-------3---1---1--1--1--1--1--1--1--|

 

GUITAR (Vocals):

 

e|--------------8------8--------------------------------------------------|
B|--10--10--10-----10------10--8--10---10--10--10--8----------------------|
G|----------------------------------------------------9--7--9-p-7-\-5-----|
D|---------------------------------------------------------------------7--|
A|------------------------------------------------------------------------|
E|------------------------------------------------------------------------|

 

GUITAR (Lead):

 

e|----------------------------------------------------------------|
B|-----------8-----8----------------------------------------------|
G|--9--9--9-----9-----9--7--9---9--9--9--7------------------------|
D|------------------------------------------10--7--10-p-7---------|
A|---------------------------------------------------------10--7--|
E|----------------------------------------------------------------|

 

BASS:

 

G|---------------------------------------------------------------------------------------|
D|---------------------------------------------------------------------------------------|
A|-----------3------------------------------------------3--------------------------------|
E|--5--5--5------3---1---1--1--1--1--1--1--1---5--5--5------3---1---1--1--1--1--1--1--1--|

 

GUITAR (Rhythm):

 

e|-------------------------------------------------------------------|
B|-------------------------------------------------------------------|
G|------------5-------------------------------------------5----------|
D|--7--7--7---5---5---3---3--3--3--3--3--3--3---7--7--7---5---5---3--|
A|--7--7--7---3---5---3---3--3--3--3--3--3--3---7--7--7---3---5---3--|
E|--5--5--5-------3---1---1--1--1--1--1--1--1---5--5--5-------3---1--|

 

GUITAR (Vocals):

 

e|--------------8------8--------------------------------------------------|
B|--10--10--10-----10------10--8--10---10--10--10--8----------------------|
G|----------------------------------------------------9--7--9-p-7-\-5-----|
D|---------------------------------------------------------------------7--|
A|------------------------------------------------------------------------|

E|------------------------------------------------------------------------|

 

GUITAR (Lead):

 

e|----------------------------------------------------------------|
B|-----------8-----8----------------------------------------------|
G|--9--9--9-----9-----9--7--9---9--9--9--7------------------------|
D|------------------------------------------10--7--10-p-7---------|
A|---------------------------------------------------------10--7--|
E|----------------------------------------------------------------|

 

BASS:

 

G|-----------------------------------------------------------------|
D|-----------------------------------------------------------------|
A|-----------3------------------------------------------3----------|
E|--5--5--5------3---1---1--1--1--1--1--1--1---5--5--5------3---1--|

©2015 by Fefe - Tron544

Sigueme en:

  • YouTube - White Circle
  • Facebook - White Circle
  • Instagram - White Circle
  • Twitter - White Circle
This site was designed with the
.com
website builder. Create your website today.
Start Now